  0
SECTION
  2
HEADER
  9
$ACADVER
  1
AC1015
  9
$ACADMAINTVER
 70
     6
  9
$DWGCODEPAGE
  3
ANSI_1252
  9
$INSBASE
 10
0.0
 20
0.0
 30
0.0
  9
$EXTMIN
 10
0.0
 20
0.0
 30
0.0
  9
$EXTMAX
 10
25.0
 20
35.0
 30
0.0
  9
$LIMMIN
 10
0.0
 20
0.0
  9
$LIMMAX
 10
420.0
 20
297.0
  9
$ORTHOMODE
 70
     0
  9
$REGENMODE
 70
     1
  9
$FILLMODE
 70
     1
  9
$QTEXTMODE
 70
     0
  9
$MIRRTEXT
 70
     1
  9
$LTSCALE
 40
5.45
  9
$ATTMODE
 70
     1
  9
$TEXTSIZE
 40
2.5
  9
$TRACEWID
 40
1.0
  9
$TEXTSTYLE
  7
Standard
  9
$CLAYER
  8
0
  9
$CELTYPE
  6
ByLayer
  9
$CECOLOR
 62
   256
  9
$CELTSCALE
 40
1.0
  9
$DISPSILH
 70
     0
  9
$DIMSCALE
 40
1.0
  9
$DIMASZ
 40
2.5
  9
$DIMEXO
 40
0.625
  9
$DIMDLI
 40
3.75
  9
$DIMRND
 40
0.0
  9
$DIMDLE
 40
0.0
  9
$DIMEXE
 40
1.25
  9
$DIMTP
 40
0.0
  9
$DIMTM
 40
0.0
  9
$DIMTXT
 40
2.5
  9
$DIMCEN
 40
2.5
  9
$DIMTSZ
 40
0.0
  9
$DIMTOL
 70
     0
  9
$DIMLIM
 70
     0
  9
$DIMTIH
 70
     0
  9
$DIMTOH
 70
     0
  9
$DIMSE1
 70
     0
  9
$DIMSE2
 70
     0
  9
$DIMTAD
 70
     1
  9
$DIMZIN
 70
     8
  9
$DIMBLK
  1

  9
$DIMASO
 70
     1
  9
$DIMSHO
 70
     1
  9
$DIMPOST
  1

  9
$DIMAPOST
  1

  9
$DIMALT
 70
     0
  9
$DIMALTD
 70
     3
  9
$DIMALTF
 40
0.03937007874016
  9
$DIMLFAC
 40
1.0
  9
$DIMTOFL
 70
     1
  9
$DIMTVP
 40
0.0
  9
$DIMTIX
 70
     0
  9
$DIMSOXD
 70
     0
  9
$DIMSAH
 70
     0
  9
$DIMBLK1
  1

  9
$DIMBLK2
  1

  9
$DIMSTYLE
  2
ISO-25
  9
$DIMCLRD
 70
     0
  9
$DIMCLRE
 70
     0
  9
$DIMCLRT
 70
     0
  9
$DIMTFAC
 40
1.0
  9
$DIMGAP
 40
0.625
  9
$DIMJUST
 70
     0
  9
$DIMSD1
 70
     0
  9
$DIMSD2
 70
     0
  9
$DIMTOLJ
 70
     0
  9
$DIMTZIN
 70
     8
  9
$DIMALTZ
 70
     0
  9
$DIMALTTZ
 70
     0
  9
$DIMUPT
 70
     0
  9
$DIMDEC
 70
     2
  9
$DIMTDEC
 70
     2
  9
$DIMALTU
 70
     2
  9
$DIMALTTD
 70
     3
  9
$DIMTXSTY
  7
Standard
  9
$DIMAUNIT
 70
     0
  9
$DIMADEC
 70
     0
  9
$DIMALTRND
 40
0.0
  9
$DIMAZIN
 70
     0
  9
$DIMDSEP
 70
    44
  9
$DIMATFIT
 70
     3
  9
$DIMFRAC
 70
     0
  9
$DIMLDRBLK
  1

  9
$DIMLUNIT
 70
     2
  9
$DIMLWD
 70
    -2
  9
$DIMLWE
 70
    -2
  9
$DIMTMOVE
 70
     0
  9
$LUNITS
 70
     2
  9
$LUPREC
 70
     4
  9
$SKETCHINC
 40
1.0
  9
$FILLETRAD
 40
10.0
  9
$AUNITS
 70
     0
  9
$AUPREC
 70
     0
  9
$MENU
  1
.
  9
$ELEVATION
 40
0.0
  9
$PELEVATION
 40
0.0
  9
$THICKNESS
 40
0.0
  9
$LIMCHECK
 70
     0
  9
$CHAMFERA
 40
10.0
  9
$CHAMFERB
 40
10.0
  9
$CHAMFERC
 40
20.0
  9
$CHAMFERD
 40
0.0
  9
$SKPOLY
 70
     0
  9
$TDCREATE
 40
2459244.115277778
  9
$TDUCREATE
 40
2459244.073611111
  9
$TDUPDATE
 40
2459244.11875
  9
$TDUUPDATE
 40
2459244.077083333
  9
$TDINDWG
 40
0.0000000116
  9
$TDUSRTIMER
 40
0.0000000116
  9
$USRTIMER
 70
     1
  9
$ANGBASE
 50
0.0
  9
$ANGDIR
 70
     0
  9
$PDMODE
 70
     0
  9
$PDSIZE
 40
0.0
  9
$PLINEWID
 40
0.0
  9
$SPLFRAME
 70
     0
  9
$SPLINETYPE
 70
     6
  9
$SPLINESEGS
 70
     8
  9
$HANDSEED
  5
DED
  9
$SURFTAB1
 70
     6
  9
$SURFTAB2
 70
     6
  9
$SURFTYPE
 70
     6
  9
$SURFU
 70
     6
  9
$SURFV
 70
     6
  9
$UCSBASE
  2

  9
$UCSNAME
  2

  9
$UCSORG
 10
0.0
 20
0.0
 30
0.0
  9
$UCSXDIR
 10
1.0
 20
0.0
 30
0.0
  9
$UCSYDIR
 10
0.0
 20
1.0
 30
0.0
  9
$UCSORTHOREF
  2

  9
$UCSORTHOVIEW
 70
     0
  9
$UCSORGTOP
 10
0.0
 20
0.0
 30
0.0
  9
$UCSORGBOTTOM
 10
0.0
 20
0.0
 30
0.0
  9
$UCSORGLEFT
 10
0.0
 20
0.0
 30
0.0
  9
$UCSORGRIGHT
 10
0.0
 20
0.0
 30
0.0
  9
$UCSORGFRONT
 10
0.0
 20
0.0
 30
0.0
  9
$UCSORGBACK
 10
0.0
 20
0.0
 30
0.0
  9
$PUCSBASE
  2

  9
$PUCSNAME
  2

  9
$PUCSORG
 10
0.0
 20
0.0
 30
0.0
  9
$PUCSXDIR
 10
1.0
 20
0.0
 30
0.0
  9
$PUCSYDIR
 10
0.0
 20
1.0
 30
0.0
  9
$PUCSORTHOREF
  2

  9
$PUCSORTHOVIEW
 70
     0
  9
$PUCSORGTOP
 10
0.0
 20
0.0
 30
0.0
  9
$PUCSORGBOTTOM
 10
0.0
 20
0.0
 30
0.0
  9
$PUCSORGLEFT
 10
0.0
 20
0.0
 30
0.0
  9
$PUCSORGRIGHT
 10
0.0
 20
0.0
 30
0.0
  9
$PUCSORGFRONT
 10
0.0
 20
0.0
 30
0.0
  9
$PUCSORGBACK
 10
0.0
 20
0.0
 30
0.0
  9
$USERI1
 70
     0
  9
$USERI2
 70
     0
  9
$USERI3
 70
     0
  9
$USERI4
 70
     0
  9
$USERI5
 70
     0
  9
$USERR1
 40
0.0
  9
$USERR2
 40
0.0
  9
$USERR3
 40
0.0
  9
$USERR4
 40
0.0
  9
$USERR5
 40
0.0
  9
$WORLDVIEW
 70
     1
  9
$SHADEDGE
 70
     3
  9
$SHADEDIF
 70
    70
  9
$TILEMODE
 70
     1
  9
$MAXACTVP
 70
    64
  9
$PINSBASE
 10
0.0
 20
0.0
 30
0.0
  9
$PLIMCHECK
 70
     0
  9
$PEXTMIN
 10
1.000000000000000E+20
 20
1.000000000000000E+20
 30
1.000000000000000E+20
  9
$PEXTMAX
 10
-1.000000000000000E+20
 20
-1.000000000000000E+20
 30
-1.000000000000000E+20
  9
$PLIMMIN
 10
0.0
 20
0.0
  9
$PLIMMAX
 10
420.0
 20
297.0
  9
$UNITMODE
 70
     0
  9
$VISRETAIN
 70
     1
  9
$PLINEGEN
 70
     0
  9
$PSLTSCALE
 70
     1
  9
$TREEDEPTH
 70
  3020
  9
$CMLSTYLE
  2
Standard
  9
$CMLJUST
 70
     0
  9
$CMLSCALE
 40
20.0
  9
$PROXYGRAPHICS
 70
     1
  9
$MEASUREMENT
 70
     1
  9
$CELWEIGHT
370
    -1
  9
$ENDCAPS
280
     0
  9
$JOINSTYLE
280
     0
  9
$LWDISPLAY
290
     0
  9
$INSUNITS
 70
     4
  9
$HYPERLINKBASE
  1

  9
$STYLESHEET
  1

  9
$XEDIT
290
     1
  9
$CEPSNTYPE
380
     0
  9
$PSTYLEMODE
290
     1
  9
$FINGERPRINTGUID
  2
{AEAE5CEA-0ADE-4729-9FE4-CB17E675BF6B}
  9
$VERSIONGUID
  2
{FAEB1C32-E019-11D5-929B-00C0DF256EC4}
  9
$EXTNAMES
290
     1
  9
$PSVPSCALE
 40
0.0
  9
$OLESTARTUP
290
     0
  0
ENDSEC
  0
SECTION
  2
CLASSES
  0
CLASS
  1
ACDBDICTIONARYWDFLT
  2
AcDbDictionaryWithDefault
  3
ObjectDBX Classes
 90
        0
280
     0
281
     0
  0
CLASS
  1
VISUALSTYLE
  2
AcDbVisualStyle
  3
ObjectDBX Classes
 90
     4095
280
     0
281
     0
  0
CLASS
  1
MATERIAL
  2
AcDbMaterial
  3
ObjectDBX Classes
 90
     1153
280
     0
281
     0
  0
CLASS
  1
SCALE
  2
AcDbScale
  3
ObjectDBX Classes
 90
     1153
280
     0
281
     0
  0
CLASS
  1
DICTIONARYVAR
  2
AcDbDictionaryVar
  3
ObjectDBX Classes
 90
        0
280
     0
281
     0
  0
CLASS
  1
ACDBPLACEHOLDER
  2
AcDbPlaceHolder
  3
ObjectDBX Classes
 90
        0
280
     0
281
     0
  0
CLASS
  1
LAYOUT
  2
AcDbLayout
  3
ObjectDBX Classes
 90
        0
280
     0
281
     0
  0
ENDSEC
  0
SECTION
  2
TABLES
  0
TABLE
  2
VPORT
  5
8
330
0
100
AcDbSymbolTable
 70
     1
  0
VPORT
  5
29
330
8
100
AcDbSymbolTableRecord
100
AcDbViewportTableRecord
  2
*Active
 70
     0
 10
0.0
 20
0.0
 11
1.0
 21
1.0
 12
11.26
 22
4.5
 13
0.0
 23
0.0
 14
10.0
 24
10.0
 15
10.0
 25
10.0
 16
0.0
 26
0.0
 36
1.0
 17
0.0
 27
0.0
 37
0.0
 40
9.0
 41
2.503333333333333
 42
50.0
 43
0.0
 44
0.0
 50
0.0
 51
0.0
 71
     0
 72
   100
 73
     1
 74
     3
 75
     0
 76
     0
 77
     0
 78
     0
281
     0
 65
     1
110
0.0
120
0.0
130
0.0
111
1.0
121
0.0
131
0.0
112
0.0
122
1.0
132
0.0
 79
     0
146
0.0
  0
ENDTAB
  0
TABLE
  2
LTYPE
  5
5
330
0
100
AcDbSymbolTable
 70
     9
  0
LTYPE
  5
14
330
5
100
AcDbSymbolTableRecord
100
AcDbLinetypeTableRecord
  2
ByBlock
 70
     0
  3

 72
    65
 73
     0
 40
0.0
  0
LTYPE
  5
15
330
5
100
AcDbSymbolTableRecord
100
AcDbLinetypeTableRecord
  2
ByLayer
 70
     0
  3

 72
    65
 73
     0
 40
0.0
  0
LTYPE
  5
16
330
5
100
AcDbSymbolTableRecord
100
AcDbLinetypeTableRecord
  2
Continuous
 70
     0
  3
Solid line
 72
    65
 73
     0
 40
0.0
  0
LTYPE
  5
45
330
5
100
AcDbSymbolTableRecord
100
AcDbLinetypeTableRecord
  2
phl_thick
 70
     0
  3
THICK
 72
    65
 73
     0
 40
0.0
  0
LTYPE
  5
425
330
5
100
AcDbSymbolTableRecord
100
AcDbLinetypeTableRecord
  2
CUT
 70
     0
  3
THICK
 72
    65
 73
     0
 40
0.0
  0
LTYPE
  5
42D
330
5
100
AcDbSymbolTableRecord
100
AcDbLinetypeTableRecord
  2
NOCUT
 70
     0
  3
THICK
 72
    65
 73
     0
 40
0.0
  0
LTYPE
  5
434
330
5
100
AcDbSymbolTableRecord
100
AcDbLinetypeTableRecord
  2
SK1
 70
     0
  3
THICK
 72
    65
 73
     0
 40
0.0
  0
LTYPE
  5
43F
330
5
100
AcDbSymbolTableRecord
100
AcDbLinetypeTableRecord
  2
ls_SK2
 70
     0
  3
THIN
 72
    65
 73
     0
 40
0.0
  0
LTYPE
  5
4E9
330
5
100
AcDbSymbolTableRecord
100
AcDbLinetypeTableRecord
  2
ls_2
 70
     0
  3
THIN
 72
    65
 73
     0
 40
0.0
  0
LTYPE
  5
6DD
330
5
100
AcDbSymbolTableRecord
100
AcDbLinetypeTableRecord
  2
ls_SK1
 70
     0
  3
THICK
 72
    65
 73
     0
 40
0.0
  0
LTYPE
  5
717
330
5
100
AcDbSymbolTableRecord
100
AcDbLinetypeTableRecord
  2
LONGDASH_DASH
 70
     0
  3
THIN_DASHDOT
 72
    65
 73
     4
 40
0.85
 49
0.4
 74
     0
 49
-0.2
 74
     0
 49
0.05
 74
     0
 49
-0.2
 74
     0
  0
ENDTAB
  0
TABLE
  2
LAYER
  5
2
330
0
100
AcDbSymbolTable
 70
     9
  0
LAYER
  5
10
330
2
100
AcDbSymbolTableRecord
100
AcDbLayerTableRecord
  2
0
 70
     0
 62
     7
  6
Continuous
370
    -3
390
F
  0
LAYER
  5
44
330
2
100
AcDbSymbolTableRecord
100
AcDbLayerTableRecord
  2
1
 70
     0
 62
4
  6
CONTINUOUS
370
50
370
    -3
390
F
  0
LAYER
  5
424
330
2
100
AcDbSymbolTableRecord
100
AcDbLayerTableRecord
  2
CUT
 70
     0
 62
1
  6
CONTINUOUS
370
25
370
    -3
390
F
  0
LAYER
  5
42C
330
2
100
AcDbSymbolTableRecord
100
AcDbLayerTableRecord
  2
NOCUT
 70
     0
 62
7
  6
CONTINUOUS
370
25
370
    -3
390
F
  0
LAYER
  5
433
330
2
100
AcDbSymbolTableRecord
100
AcDbLayerTableRecord
  2
SK1
 70
     0
 62
4
  6
CONTINUOUS
370
50
370
    -3
390
F
  0
LAYER
  5
43E
330
2
100
AcDbSymbolTableRecord
100
AcDbLayerTableRecord
  2
SK2
 70
     0
 62
7
  6
CONTINUOUS
370
25
370
    -3
390
F
  0
LAYER
  5
4E8
330
2
100
AcDbSymbolTableRecord
100
AcDbLayerTableRecord
  2
2
 70
     0
 62
7
  6
CONTINUOUS
370
25
370
    -3
390
F
  0
LAYER
  5
716
330
2
100
AcDbSymbolTableRecord
100
AcDbLayerTableRecord
  2
4
 70
     0
 62
2
  6
LONGDASH_DASH
370
25
370
    -3
390
F
  0
LAYER
  5
719
330
2
100
AcDbSymbolTableRecord
100
AcDbLayerTableRecord
  2
SK4
 70
     0
 62
2
  6
LONGDASH_DASH
370
25
370
    -3
390
F
  0
ENDTAB
  0
TABLE
  2
STYLE
  5
3
330
0
100
AcDbSymbolTable
 70
     1
  0
STYLE
  5
11
330
3
100
AcDbSymbolTableRecord
100
AcDbTextStyleTableRecord
  2
Standard
 70
     0
 40
0.0
 41
1.0
 50
0.0
 71
     0
 42
2.5
  3
Monospac821 BT
  4

  0
ENDTAB
  0
TABLE
  2
VIEW
  5
6
330
0
100
AcDbSymbolTable
 70
     0
  0
ENDTAB
  0
TABLE
  2
UCS
  5
7
330
0
100
AcDbSymbolTable
 70
     0
  0
ENDTAB
  0
TABLE
  2
APPID
  5
9
330
0
100
AcDbSymbolTable
 70
     2
  0
APPID
  5
12
330
9
100
AcDbSymbolTableRecord
100
AcDbRegAppTableRecord
  2
ACAD
 70
     0
  0
APPID
  5
3F
330
9
100
AcDbSymbolTableRecord
100
AcDbRegAppTableRecord
  2
ccLab
 70
     0
  0
ENDTAB
  0
TABLE
  2
DIMSTYLE
  5
A
330
0
100
AcDbSymbolTable
 70
     1
100
AcDbDimStyleTable
  0
DIMSTYLE
105
27
330
A
100
AcDbSymbolTableRecord
100
AcDbDimStyleTableRecord
  2
ISO-25
 70
     0
 41
2.5
 42
0.625
 43
3.75
 44
1.25
 73
     0
 74
     0
 77
     1
 78
     8
140
2.5
141
2.5
143
0.03937007874016
147
0.625
171
     3
172
     1
271
     2
272
     2
274
     3
278
    44
283
     0
284
     8
340
11
  0
ENDTAB
  0
TABLE
  2
BLOCK_RECORD
  5
1
330
0
100
AcDbSymbolTable
 70
     2
  0
BLOCK_RECORD
  5
1F
330
1
100
AcDbSymbolTableRecord
100
AcDbBlockTableRecord
  2
*Model_Space
340
22
  0
BLOCK_RECORD
  5
1B
330
1
100
AcDbSymbolTableRecord
100
AcDbBlockTableRecord
  2
*Paper_Space
340
1E
  0
BLOCK_RECORD
  5
23
330
1
100
AcDbSymbolTableRecord
100
AcDbBlockTableRecord
  2
*Paper_Space0
340
26
  0
ENDTAB
  0
ENDSEC
  0
SECTION
  2
BLOCKS
  0
BLOCK
  5
20
330
1F
100
AcDbEntity
  8
0
100
AcDbBlockBegin
  2
*Model_Space
 70
     0
 10
0.0
 20
0.0
 30
0.0
  3
*Model_Space
  1

  0
ENDBLK
  5
21
330
1F
100
AcDbEntity
  8
0
100
AcDbBlockEnd
  0
BLOCK
  5
1C
330
1B
100
AcDbEntity
 67
     1
  8
0
100
AcDbBlockBegin
  2
*Paper_Space
 70
     0
 10
0.0
 20
0.0
 30
0.0
  3
*Paper_Space
  1

  0
ENDBLK
  5
1D
330
1B
100
AcDbEntity
 67
     1
  8
0
100
AcDbBlockEnd
  0
BLOCK
  5
24
330
23
100
AcDbEntity
  8
0
100
AcDbBlockBegin
  2
*Paper_Space0
 70
     0
 10
0.0
 20
0.0
 30
0.0
  3
*Paper_Space0
  1

  0
ENDBLK
  5
25
330
23
100
AcDbEntity
  8
0
100
AcDbBlockEnd
  0
ENDSEC
  0
SECTION
  2
ENTITIES
  0
LINE
  5
71A
330
1F
100
AcDbEntity
  8
1
  6
CONTINUOUS
370
50
 62
4
100
AcDbLine
 10
74.004967
 20
-1.463042
 30
0.0
 11
74.00495099999999
 21
-1.207509
 31
0.0
  0
LINE
  5
71B
330
1F
100
AcDbEntity
  8
1
  6
CONTINUOUS
370
50
 62
4
100
AcDbLine
 10
74.004967
 20
-1.463439
 30
0.0
 11
74.00495099999999
 21
-1.208434
 31
0.0
  0
LINE
  5
71C
330
1F
100
AcDbEntity
  8
1
  6
CONTINUOUS
370
50
 62
4
100
AcDbLine
 10
74.00495099999999
 20
-1.208434
 30
0.0
 11
74.004921
 21
-0.956882
 31
0.0
  0
LINE
  5
71D
330
1F
100
AcDbEntity
  8
1
  6
CONTINUOUS
370
50
 62
4
100
AcDbLine
 10
74.00495099999999
 20
-1.207509
 30
0.0
 11
74.004921
 21
-0.955974
 31
0.0
  0
LINE
  5
71E
330
1F
100
AcDbEntity
  8
1
  6
CONTINUOUS
370
50
 62
4
100
AcDbLine
 10
74.004921
 20
-0.956882
 30
0.0
 11
74.004875
 21
-0.709262
 31
0.0
  0
LINE
  5
71F
330
1F
100
AcDbEntity
  8
1
  6
CONTINUOUS
370
50
 62
4
100
AcDbLine
 10
74.004921
 20
-0.955974
 30
0.0
 11
74.004875
 21
-0.709013
 31
0.0
  0
LINE
  5
720
330
1F
100
AcDbEntity
  8
1
  6
CONTINUOUS
370
50
 62
4
100
AcDbLine
 10
74.004875
 20
-0.709262
 30
0.0
 11
74.004807
 21
-0.466728
 31
0.0
  0
LINE
  5
721
330
1F
100
AcDbEntity
  8
1
  6
CONTINUOUS
370
50
 62
4
100
AcDbLine
 10
74.004875
 20
-0.709013
 30
0.0
 11
74.004807
 21
-0.467069
 31
0.0
  0
LINE
  5
722
330
1F
100
AcDbEntity
  8
1
  6
CONTINUOUS
370
50
 62
4
100
AcDbLine
 10
74.004807
 20
-0.466728
 30
0.0
 11
74.004723
 21
-0.230173
 31
0.0
  0
LINE
  5
723
330
1F
100
AcDbEntity
  8
1
  6
CONTINUOUS
370
50
 62
4
100
AcDbLine
 10
74.004807
 20
-0.467069
 30
0.0
 11
74.004723
 21
-0.230584
 31
0.0
  0
LINE
  5
724
330
1F
100
AcDbEntity
  8
1
  6
CONTINUOUS
370
50
 62
4
100
AcDbLine
 10
74.004723
 20
-0.230584
 30
0.0
 11
74.004623
 21
0.0
 31
0.0
  0
LINE
  5
725
330
1F
100
AcDbEntity
  8
1
  6
CONTINUOUS
370
50
 62
4
100
AcDbLine
 10
74.004723
 20
-0.230173
 30
0.0
 11
74.004623
 21
0.0
 31
0.0
  0
LINE
  5
726
330
1F
100
AcDbEntity
  8
1
  6
CONTINUOUS
370
50
 62
4
100
AcDbLine
 10
74.004623
 20
0.0
 30
0.0
 11
74.004524
 21
0.188524
 31
0.0
  0
LINE
  5
727
330
1F
100
AcDbEntity
  8
1
  6
CONTINUOUS
370
50
 62
4
100
AcDbLine
 10
74.004623
 20
0.0
 30
0.0
 11
74.004524
 21
0.187619
 31
0.0
  0
LINE
  5
728
330
1F
100
AcDbEntity
  8
1
  6
CONTINUOUS
370
50
 62
4
100
AcDbLine
 10
74.004524
 20
0.188524
 30
0.0
 11
74.004417
 21
0.371711
 31
0.0
  0
LINE
  5
729
330
1F
100
AcDbEntity
  8
1
  6
CONTINUOUS
370
50
 62
4
100
AcDbLine
 10
74.004524
 20
0.187619
 30
0.0
 11
74.004417
 21
0.37024
 31
0.0
  0
LINE
  5
72A
330
1F
100
AcDbEntity
  8
1
  6
CONTINUOUS
370
50
 62
4
100
AcDbLine
 10
74.004417
 20
0.371711
 30
0.0
 11
74.004303
 21
0.5493439999999999
 31
0.0
  0
LINE
  5
72B
330
1F
100
AcDbEntity
  8
1
  6
CONTINUOUS
370
50
 62
4
100
AcDbLine
 10
74.004417
 20
0.37024
 30
0.0
 11
74.004303
 21
0.547624
 31
0.0
  0
LINE
  5
72C
330
1F
100
AcDbEntity
  8
1
  6
CONTINUOUS
370
50
 62
4
100
AcDbLine
 10
74.004303
 20
0.547624
 30
0.0
 11
74.004181
 21
0.719534
 31
0.0
  0
LINE
  5
72D
330
1F
100
AcDbEntity
  8
1
  6
CONTINUOUS
370
50
 62
4
100
AcDbLine
 10
74.004303
 20
0.5493439999999999
 30
0.0
 11
74.004181
 21
0.7212149999999999
 31
0.0
  0
LINE
  5
72E
330
1F
100
AcDbEntity
  8
1
  6
CONTINUOUS
370
50
 62
4
100
AcDbLine
 10
74.004181
 20
0.719534
 30
0.0
 11
74.00405099999999
 21
0.8857339999999999
 31
0.0
  0
LINE
  5
72F
330
1F
100
AcDbEntity
  8
1
  6
CONTINUOUS
370
50
 62
4
100
AcDbLine
 10
74.004181
 20
0.7212149999999999
 30
0.0
 11
74.00405099999999
 21
0.887111
 31
0.0
  0
LINE
  5
730
330
1F
100
AcDbEntity
  8
1
  6
CONTINUOUS
370
50
 62
4
100
AcDbLine
 10
74.00405099999999
 20
0.8857339999999999
 30
0.0
 11
74.003906
 21
1.045968
 31
0.0
  0
LINE
  5
731
330
1F
100
AcDbEntity
  8
1
  6
CONTINUOUS
370
50
 62
4
100
AcDbLine
 10
74.00405099999999
 20
0.887111
 30
0.0
 11
74.003906
 21
1.046824
 31
0.0
  0
LINE
  5
732
330
1F
100
AcDbEntity
  8
1
  6
CONTINUOUS
370
50
 62
4
100
AcDbLine
 10
74.003906
 20
1.045968
 30
0.0
 11
74.003761
 21
1.199647
 31
0.0
  0
LINE
  5
733
330
1F
100
AcDbEntity
  8
1
  6
CONTINUOUS
370
50
 62
4
100
AcDbLine
 10
74.003906
 20
1.046824
 30
0.0
 11
74.003761
 21
1.200142
 31
0.0
  0
LINE
  5
734
330
1F
100
AcDbEntity
  8
1
  6
CONTINUOUS
370
50
 62
4
100
AcDbLine
 10
74.003761
 20
1.199647
 30
0.0
 11
74.003616
 21
1.34644
 31
0.0
  0
LINE
  5
735
330
1F
100
AcDbEntity
  8
1
  6
CONTINUOUS
370
50
 62
4
100
AcDbLine
 10
74.003761
 20
1.200142
 30
0.0
 11
74.003616
 21
1.346855
 31
0.0
  0
LINE
  5
736
330
1F
100
AcDbEntity
  8
1
  6
CONTINUOUS
370
50
 62
4
100
AcDbLine
 10
74.003616
 20
1.346855
 30
0.0
 11
74.003456
 21
1.486754
 31
0.0
  0
LINE
  5
737
330
1F
100
AcDbEntity
  8
1
  6
CONTINUOUS
370
50
 62
4
100
AcDbLine
 10
74.003616
 20
1.34644
 30
0.0
 11
74.003456
 21
1.486172
 31
0.0
  0
LINE
  5
738
330
1F
100
AcDbEntity
  8
1
  6
CONTINUOUS
370
50
 62
4
100
AcDbLine
 10
74.003456
 20
1.486754
 30
0.0
 11
74.00329599999999
 21
1.619578
 31
0.0
  0
LINE
  5
739
330
1F
100
AcDbEntity
  8
1
  6
CONTINUOUS
370
50
 62
4
100
AcDbLine
 10
74.003456
 20
1.486172
 30
0.0
 11
74.00329599999999
 21
1.61867
 31
0.0
  0
LINE
  5
73A
330
1F
100
AcDbEntity
  8
1
  6
CONTINUOUS
370
50
 62
4
100
AcDbLine
 10
74.00329599999999
 20
1.619578
 30
0.0
 11
74.003136
 21
1.744759
 31
0.0
  0
LINE
  5
73B
330
1F
100
AcDbEntity
  8
1
  6
CONTINUOUS
370
50
 62
4
100
AcDbLine
 10
74.00329599999999
 20
1.61867
 30
0.0
 11
74.003136
 21
1.743759
 31
0.0
  0
LINE
  5
73C
330
1F
100
AcDbEntity
  8
1
  6
CONTINUOUS
370
50
 62
4
100
AcDbLine
 10
74.003136
 20
1.743759
 30
0.0
 11
74.002968
 21
1.861264
 31
0.0
  0
LINE
  5
73D
330
1F
100
AcDbEntity
  8
1
  6
CONTINUOUS
370
50
 62
4
100
AcDbLine
 10
74.003136
 20
1.744759
 30
0.0
 11
74.002968
 21
1.862086
 31
0.0
  0
LINE
  5
73E
330
1F
100
AcDbEntity
  8
1
  6
CONTINUOUS
370
50
 62
4
100
AcDbLine
 10
74.002968
 20
1.861264
 30
0.0
 11
74.0028
 21
1.970953
 31
0.0
  0
LINE
  5
73F
330
1F
100
AcDbEntity
  8
1
  6
CONTINUOUS
370
50
 62
4
100
AcDbLine
 10
74.002968
 20
1.862086
 30
0.0
 11
74.0028
 21
1.971437
 31
0.0
  0
LINE
  5
740
330
1F
100
AcDbEntity
  8
1
  6
CONTINUOUS
370
50
 62
4
100
AcDbLine
 10
74.0028
 20
1.970953
 30
0.0
 11
74.002625
 21
2.072462
 31
0.0
  0
LINE
  5
741
330
1F
100
AcDbEntity
  8
1
  6
CONTINUOUS
370
50
 62
4
100
AcDbLine
 10
74.0028
 20
1.971437
 30
0.0
 11
74.002625
 21
2.07269
 31
0.0
  0
LINE
  5
742
330
1F
100
AcDbEntity
  8
1
  6
CONTINUOUS
370
50
 62
4
100
AcDbLine
 10
74.002625
 20
2.072462
 30
0.0
 11
74.002449
 21
2.165661
 31
0.0
  0
LINE
  5
743
330
1F
100
AcDbEntity
  8
1
  6
CONTINUOUS
370
50
 62
4
100
AcDbLine
 10
74.002625
 20
2.07269
 30
0.0
 11
74.002449
 21
2.165723
 31
0.0
  0
LINE
  5
744
330
1F
100
AcDbEntity
  8
1
  6
CONTINUOUS
370
50
 62
4
100
AcDbLine
 10
74.002449
 20
2.165661
 30
0.0
 11
74.002274
 21
2.250442
 31
0.0
  0
LINE
  5
745
330
1F
100
AcDbEntity
  8
1
  6
CONTINUOUS
370
50
 62
4
100
AcDbLine
 10
74.002449
 20
2.165723
 30
0.0
 11
74.002274
 21
2.250413
 31
0.0
  0
LINE
  5
746
330
1F
100
AcDbEntity
  8
1
  6
CONTINUOUS
370
50
 62
4
100
AcDbLine
 10
74.002274
 20
2.250442
 30
0.0
 11
74.002098
 21
2.326698
 31
0.0
  0
LINE
  5
747
330
1F
100
AcDbEntity
  8
1
  6
CONTINUOUS
370
50
 62
4
100
AcDbLine
 10
74.002274
 20
2.250413
 30
0.0
 11
74.002098
 21
2.326639
 31
0.0
  0
LINE
  5
748
330
1F
100
AcDbEntity
  8
1
  6
CONTINUOUS
370
50
 62
4
100
AcDbLine
 10
74.002098
 20
2.326639
 30
0.0
 11
74.00192299999999
 21
2.394278
 31
0.0
  0
LINE
  5
749
330
1F
100
AcDbEntity
  8
1
  6
CONTINUOUS
370
50
 62
4
100
AcDbLine
 10
74.002098
 20
2.326698
 30
0.0
 11
74.00192299999999
 21
2.394323
 31
0.0
  0
LINE
  5
74A
330
1F
100
AcDbEntity
  8
1
  6
CONTINUOUS
370
50
 62
4
100
AcDbLine
 10
74.00192299999999
 20
2.394278
 30
0.0
 11
74.001747
 21
2.453208
 31
0.0
  0
LINE
  5
74B
330
1F
100
AcDbEntity
  8
1
  6
CONTINUOUS
370
50
 62
4
100
AcDbLine
 10
74.00192299999999
 20
2.394323
 30
0.0
 11
74.001747
 21
2.453208
 31
0.0
  0
LINE
  5
74C
330
1F
100
AcDbEntity
  8
1
  6
CONTINUOUS
370
50
 62
4
100
AcDbLine
 10
74.000496
 20
2.834606
 30
0.0
 11
74.000252
 21
2.910915
 31
0.0
  0
LINE
  5
74D
330
1F
100
AcDbEntity
  8
1
  6
CONTINUOUS
370
50
 62
4
100
AcDbLine
 10
74.000496
 20
2.834598
 30
0.0
 11
74.000252
 21
2.910905
 31
0.0
  0
LINE
  5
74E
330
1F
100
AcDbEntity
  8
1
  6
CONTINUOUS
370
50
 62
4
100
AcDbLine
 10
74.001244
 20
2.605737
 30
0.0
 11
74.000999
 21
2.682017
 31
0.0
  0
LINE
  5
74F
330
1F
100
AcDbEntity
  8
1
  6
CONTINUOUS
370
50
 62
4
100
AcDbLine
 10
74.001244
 20
2.605735
 30
0.0
 11
74.000999
 21
2.682013
 31
0.0
  0
LINE
  5
750
330
1F
100
AcDbEntity
  8
1
  6
CONTINUOUS
370
50
 62
4
100
AcDbLine
 10
74.000999
 20
2.682017
 30
0.0
 11
74.000748
 21
2.758306
 31
0.0
  0
LINE
  5
751
330
1F
100
AcDbEntity
  8
1
  6
CONTINUOUS
370
50
 62
4
100
AcDbLine
 10
74.000999
 20
2.682013
 30
0.0
 11
74.000748
 21
2.758301
 31
0.0
  0
LINE
  5
752
330
1F
100
AcDbEntity
  8
1
  6
CONTINUOUS
370
50
 62
4
100
AcDbLine
 10
74.00149499999999
 20
2.529468
 30
0.0
 11
74.001244
 21
2.605737
 31
0.0
  0
LINE
  5
753
330
1F
100
AcDbEntity
  8
1
  6
CONTINUOUS
370
50
 62
4
100
AcDbLine
 10
74.00149499999999
 20
2.529467
 30
0.0
 11
74.001244
 21
2.605735
 31
0.0
  0
LINE
  5
754
330
1F
100
AcDbEntity
  8
1
  6
CONTINUOUS
370
50
 62
4
100
AcDbLine
 10
74.000252
 20
2.910915
 30
0.0
 11
74.0
 21
2.987234
 31
0.0
  0
LINE
  5
755
330
1F
100
AcDbEntity
  8
1
  6
CONTINUOUS
370
50
 62
4
100
AcDbLine
 10
74.000252
 20
2.910905
 30
0.0
 11
74.0
 21
2.987222
 31
0.0
  0
LINE
  5
756
330
1F
100
AcDbEntity
  8
1
  6
CONTINUOUS
370
50
 62
4
100
AcDbLine
 10
74.000748
 20
2.758306
 30
0.0
 11
74.000496
 21
2.834606
 31
0.0
  0
LINE
  5
757
330
1F
100
AcDbEntity
  8
1
  6
CONTINUOUS
370
50
 62
4
100
AcDbLine
 10
74.000748
 20
2.758301
 30
0.0
 11
74.000496
 21
2.834598
 31
0.0
  0
LINE
  5
758
330
1F
100
AcDbEntity
  8
1
  6
CONTINUOUS
370
50
 62
4
100
AcDbLine
 10
74.001747
 20
2.453208
 30
0.0
 11
74.00149499999999
 21
2.529468
 31
0.0
  0
LINE
  5
759
330
1F
100
AcDbEntity
  8
1
  6
CONTINUOUS
370
50
 62
4
100
AcDbLine
 10
74.001747
 20
2.453208
 30
0.0
 11
74.00149499999999
 21
2.529467
 31
0.0
  0
LINE
  5
75A
330
1F
100
AcDbEntity
  8
1
  6
CONTINUOUS
370
50
 62
4
100
AcDbLine
 10
96.68972
 20
7.635127
 30
0.0
 11
96.687744
 21
7.820965999999999
 31
0.0
  0
LINE
  5
75B
330
1F
100
AcDbEntity
  8
1
  6
CONTINUOUS
370
50
 62
4
100
AcDbLine
 10
98.95320099999999
 20
-4.03732
 30
0.0
 11
98.948914
 21
-3.651151
 31
0.0
  0
LINE
  5
75C
330
1F
100
AcDbEntity
  8
1
  6
CONTINUOUS
370
50
 62
4
100
AcDbLine
 10
63.337608
 20
-5.482653
 30
0.0
 11
63.334213
 21
-5.290081
 31
0.0
  0
LINE
  5
75D
330
1F
100
AcDbEntity
  8
1
  6
CONTINUOUS
370
50
 62
4
100
AcDbLine
 10
101.0
 20
8.499984999999999
 30
0.0
 11
100.996666
 21
8.660115
 31
0.0
  0
LINE
  5
75E
330
1F
100
AcDbEntity
  8
1
  6
CONTINUOUS
370
50
 62
4
100
AcDbLine
 10
98.96244
 20
-4.423254
 30
0.0
 11
98.95320099999999
 21
-4.03732
 31
0.0
  0
LINE
  5
75F
330
1F
100
AcDbEntity
  8
1
  6
CONTINUOUS
370
50
 62
4
100
AcDbLine
 10
98.97668499999999
 20
-4.808593999999999
 30
0.0
 11
98.96244
 21
-4.423254
 31
0.0
  0
LINE
  5
760
330
1F
100
AcDbEntity
  8
1
  6
CONTINUOUS
370
50
 62
4
100
AcDbLine
 10
98.99593399999999
 20
-5.19218
 30
0.0
 11
98.97668499999999
 21
-4.808593999999999
 31
0.0
  0
LINE
  5
761
330
1F
100
AcDbEntity
  8
1
  6
CONTINUOUS
370
50
 62
4
100
AcDbLine
 10
96.687744
 20
7.820965999999999
 30
0.0
 11
96.67736099999999
 21
8.014859
 31
0.0
  0
LINE
  5
762
330
1F
100
AcDbEntity
  8
1
  6
CONTINUOUS
370
50
 62
4
100
AcDbLine
 10
57.546692
 20
9.770406999999999
 30
0.0
 11
57.543236
 21
9.83443
 31
0.0
  0
LINE
  5
763
330
1F
100
AcDbEntity
  8
1
  6
CONTINUOUS
370
50
 62
4
100
AcDbLine
 10
100.996666
 20
8.660115
 30
0.0
 11
100.986534
 21
8.824605
 31
0.0
  0
LINE
  5
764
330
1F
100
AcDbEntity
  8
1
  6
CONTINUOUS
370
50
 62
4
100
AcDbLine
 10
66.020325
 20
-11.042822
 30
0.0
 11
66.005051
 21
-10.795154
 31
0.0
  0
LINE
  5
765
330
1F
100
AcDbEntity
  8
1
  6
CONTINUOUS
370
50
 62
4
100
AcDbLine
 10
99.02008099999999
 20
-5.572032
 30
0.0
 11
98.99593399999999
 21
-5.19218
 31
0.0
  0
LINE
  5
766
330
1F
100
AcDbEntity
  8
1
  6
CONTINUOUS
370
50
 62
4
100
AcDbLine
 10
99.049095
 20
-5.947742
 30
0.0
 11
99.02008099999999
 21
-5.572032
 31
0.0
  0
LINE
  5
767
330
1F
100
AcDbEntity
  8
1
  6
CONTINUOUS
370
50
 62
4
100
AcDbLine
 10
99.08292399999999
 20
-6.318954
 30
0.0
 11
99.049095
 21
-5.947742
 31
0.0
  0
LINE
  5
768
330
1F
100
AcDbEntity
  8
1
  6
CONTINUOUS
370
50
 62
4
100
AcDbLine
 10
96.67736099999999
 20
8.014859
 30
0.0
 11
96.65872999999999
 21
8.216617
 31
0.0
  0
LINE
  5
769
330
1F
100
AcDbEntity
  8
1
  6
CONTINUOUS
370
50
 62
4
100
AcDbLine
 10
63.35516699999999
 20
-5.6726
 30
0.0
 11
63.337608
 21
-5.482653
 31
0.0
  0
LINE
  5
76A
330
1F
100
AcDbEntity
  8
1
  6
CONTINUOUS
370
50
 62
4
100
AcDbLine
 10
100.986534
 20
8.824605
 30
0.0
 11
100.969452
 21
8.99162
 31
0.0
  0
LINE
  5
76B
330
1F
100
AcDbEntity
  8
1
  6
CONTINUOUS
370
50
 62
4
100
AcDbLine
 10
99.121513
 20
-6.685306
 30
0.0
 11
99.08292399999999
 21
-6.318954
 31
0.0
  0
LINE
  5
76C
330
1F
100
AcDbEntity
  8
1
  6
CONTINUOUS
370
50
 62
4
100
AcDbLine
 10
99.164818
 20
-7.046441
 30
0.0
 11
99.121513
 21
-6.685306
 31
0.0
  0
LINE
  5
76D
330
1F
100
AcDbEntity
  8
1
  6
CONTINUOUS
370
50
 62
4
100
AcDbLine
 10
96.65872999999999
 20
8.216617
 30
0.0
 11
96.632004
 21
8.42579
 31
0.0
  0
LINE
  5
76E
330
1F
100
AcDbEntity
  8
1
  6
CONTINUOUS
370
50
 62
4
100
AcDbLine
 10
99.21279899999999
 20
-7.401999999999999
 30
0.0
 11
99.164818
 21
-7.046441
 31
0.0
  0
LINE
  5
76F
330
1F
100
AcDbEntity
  8
1
  6
CONTINUOUS
370
50
 62
4
100
AcDbLine
 10
100.969452
 20
8.99162
 30
0.0
 11
100.945236
 21
9.159324
 31
0.0
  0
LINE
  5
770
330
1F
100
AcDbEntity
  8
1
  6
CONTINUOUS
370
50
 62
4
100
AcDbLine
 10
99.26538099999999
 20
-7.751493
 30
0.0
 11
99.21279899999999
 21
-7.401999999999999
 31
0.0
  0
LINE
  5
771
330
1F
100
AcDbEntity
  8
1
  6
CONTINUOUS
370
50
 62
4
100
AcDbLine
 10
57.556797
 20
9.703773
 30
0.0
 11
57.546692
 21
9.770406999999999
 31
0.0
  0
LINE
  5
772
330
1F
100
AcDbEntity
  8
1
  6
CONTINUOUS
370
50
 62
4
100
AcDbLine
 10
66.005051
 20
-10.795154
 30
0.0
 11
65.962799
 21
-10.519993
 31
0.0
  0
LINE
  5
773
330
1F
100
AcDbEntity
  8
1
  6
CONTINUOUS
370
50
 62
4
100
AcDbLine
 10
96.632004
 20
8.42579
 30
0.0
 11
96.59735099999999
 21
8.641928
 31
0.0
  0
LINE
  5
774
330
1F
100
AcDbEntity
  8
1
  6
CONTINUOUS
370
50
 62
4
100
AcDbLine
 10
99.322289
 20
-8.093297999999999
 30
0.0
 11
99.26538099999999
 21
-7.751493
 31
0.0
  0
LINE
  5
775
330
1F
100
AcDbEntity
  8
1
  6
CONTINUOUS
370
50
 62
4
100
AcDbLine
 10
63.38751199999999
 20
-5.859472999999999
 30
0.0
 11
63.35516699999999
 21
-5.6726
 31
0.0
  0
LINE
  5
776
330
1F
100
AcDbEntity
  8
1
  6
CONTINUOUS
370
50
 62
4
100
AcDbLine
 10
99.383369
 20
-8.426838
 30
0.0
 11
99.322289
 21
-8.093297999999999
 31
0.0
  0
LINE
  5
777
330
1F
100
AcDbEntity
  8
1
  6
CONTINUOUS
370
50
 62
4
100
AcDbLine
 10
100.945236
 20
9.159324
 30
0.0
 11
100.91375
 21
9.325885
 31
0.0
  0
LINE
  5
778
330
1F
100
AcDbEntity
  8
1
  6
CONTINUOUS
370
50
 62
4
100
AcDbLine
 10
96.59735099999999
 20
8.641928
 30
0.0
 11
96.55491599999999
 21
8.864583
 31
0.0
  0
LINE
  5
779
330
1F
100
AcDbEntity
  8
1
  6
CONTINUOUS
370
50
 62
4
100
AcDbLine
 10
99.448509
 20
-8.751877
 30
0.0
 11
99.383369
 21
-8.426838
 31
0.0
  0
LINE
  5
77A
330
1F
100
AcDbEntity
  8
1
  6
CONTINUOUS
370
50
 62
4
100
AcDbLine
 10
99.51759299999999
 20
-9.068178
 30
0.0
 11
99.448509
 21
-8.751877
 31
0.0
  0
LINE
  5
77B
330
1F
100
AcDbEntity
  8
1
  6
CONTINUOUS
370
50
 62
4
100
AcDbLine
 10
96.55491599999999
 20
8.864583
 30
0.0
 11
96.504868
 21
9.093304999999999
 31
0.0
  0
LINE
  5
77C
330
1F
100
AcDbEntity
  8
1
  6
CONTINUOUS
370
50
 62
4
100
AcDbLine
 10
65.962799
 20
-10.519993
 30
0.0
 11
65.89555399999999
 21
-10.219856
 31
0.0
  0
LINE
  5
77D
330
1F
100
AcDbEntity
  8
1
  6
CONTINUOUS
370
50
 62
4
100
AcDbLine
 10
100.91375
 20
9.325885
 30
0.0
 11
100.875366
 21
9.489628999999999
 31
0.0
  0
LINE
  5
77E
330
1F
100
AcDbEntity
  8
1
  6
CONTINUOUS
370
50
 62
4
100
AcDbLine
 10
99.59052299999999
 20
-9.375504
 30
0.0
 11
99.51759299999999
 21
-9.068178
 31
0.0
  0
LINE
  5
77F
330
1F
100
AcDbEntity
  8
1
  6
CONTINUOUS
370
50
 62
4
100
AcDbLine
 10
101.0
 20
2.161628
 30
0.0
 11
100.256096
 21
5.22558
 31
0.0
  0
LINE
  5
780
330
1F
100
AcDbEntity
  8
1
  6
CONTINUOUS
370
50
 62
4
100
AcDbLine
 10
57.57369199999999
 20
9.634535999999999
 30
0.0
 11
57.556797
 21
9.703773
 31
0.0
  0
LINE
  5
781
330
1F
100
AcDbEntity
  8
1
  6
CONTINUOUS
370
50
 62
4
100
AcDbLine
 10
96.504868
 20
9.093304999999999
 30
0.0
 11
96.44735
 21
9.327643
 31
0.0
  0
LINE
  5
782
330
1F
100
AcDbEntity
  8
1
  6
CONTINUOUS
370
50
 62
4
100
AcDbLine
 10
99.667191
 20
-9.673618
 30
0.0
 11
99.59052299999999
 21
-9.375504
 31
0.0
  0
LINE
  5
783
330
1F
100
AcDbEntity
  8
1
  6
CONTINUOUS
370
50
 62
4
100
AcDbLine
 10
63.435272
 20
-6.042808
 30
0.0
 11
63.38751199999999
 21
-5.859472999999999
 31
0.0
  0
LINE
  5
784
330
1F
100
AcDbEntity
  8
1
  6
CONTINUOUS
370
50
 62
4
100
AcDbLine
 10
96.44735
 20
9.327643
 30
0.0
 11
96.38253
 21
9.56715
 31
0.0
  0
LINE
  5
785
330
1F
100
AcDbEntity
  8
1
  6
CONTINUOUS
370
50
 62
4
100
AcDbLine
 10
99.74748199999999
 20
-9.962284
 30
0.0
 11
99.667191
 21
-9.673618
 31
0.0
  0
LINE
  5
786
330
1F
100
AcDbEntity
  8
1
  6
CONTINUOUS
370
50
 62
4
100
AcDbLine
 10
100.875366
 20
9.489628999999999
 30
0.0
 11
100.830986
 21
9.649022
 31
0.0
  0
LINE
  5
787
330
1F
100
AcDbEntity
  8
1
  6
CONTINUOUS
370
50
 62
4
100
AcDbLine
 10
65.89555399999999
 20
-10.219856
 30
0.0
 11
65.80502299999999
 21
-9.896173
 31
0.0
  0
LINE
  5
788
330
1F
100
AcDbEntity
  8
1
  6
CONTINUOUS
370
50
 62
4
100
AcDbLine
 10
96.38253
 20
9.56715
 30
0.0
 11
96.31057
 21
9.811376
 31
0.0
  0
LINE
  5
789
330
1F
100
AcDbEntity
  8
1
  6
CONTINUOUS
370
50
 62
4
100
AcDbLine
 10
96.164917
 20
10.295426
 30
0.0
 11
96.14119
 21
10.375951
 31
0.0
  0
LINE
  5
78A
330
1F
100
AcDbEntity
  8
1
  6
CONTINUOUS
370
50
 62
4
100
AcDbLine
 10
96.188805
 20
10.214855
 30
0.0
 11
96.164917
 21
10.295426
 31
0.0
  0
LINE
  5
78B
330
1F
100
AcDbEntity
  8
1
  6
CONTINUOUS
370
50
 62
4
100
AcDbLine
 10
96.212845
 20
10.134239
 30
0.0
 11
96.188805
 21
10.214855
 31
0.0
  0
LINE
  5
78C
330
1F
100
AcDbEntity
  8
1
  6
CONTINUOUS
370
50
 62
4
100
AcDbLine
 10
96.237038
 20
10.053581
 30
0.0
 11
96.212845
 21
10.134239
 31
0.0
  0
LINE
  5
78D
330
1F
100
AcDbEntity
  8
1
  6
CONTINUOUS
370
50
 62
4
100
AcDbLine
 10
96.26139099999999
 20
9.972883
 30
0.0
 11
96.237038
 21
10.053581
 31
0.0
  0
LINE
  5
78E
330
1F
100
AcDbEntity
  8
1
  6
CONTINUOUS
370
50
 62
4
100
AcDbLine
 10
96.285904
 20
9.892147
 30
0.0
 11
96.26139099999999
 21
9.972883
 31
0.0
  0
LINE
  5
78F
330
1F
100
AcDbEntity
  8
1
  6
CONTINUOUS
370
50
 62
4
100
AcDbLine
 10
96.31057
 20
9.811376
 30
0.0
 11
96.285904
 21
9.892147
 31
0.0
  0
LINE
  5
790
330
1F
100
AcDbEntity
  8
1
  6
CONTINUOUS
370
50
 62
4
100
AcDbLine
 10
100.830986
 20
9.649022
 30
0.0
 11
100.781502
 21
9.802539999999999
 31
0.0
  0
LINE
  5
791
330
1F
100
AcDbEntity
  8
1
  6
CONTINUOUS
370
50
 62
4
100
AcDbLine
 10
65.80502299999999
 20
-9.896173
 30
0.0
 11
65.69292399999999
 21
-9.550258
 31
0.0
  0
LINE
  5
792
330
1F
100
AcDbEntity
  8
1
  6
CONTINUOUS
370
50
 62
4
100
AcDbLine
 10
57.59753
 20
9.562699
 30
0.0
 11
57.57369199999999
 21
9.634535999999999
 31
0.0
  0
LINE
  5
793
330
1F
100
AcDbEntity
  8
1
  6
CONTINUOUS
370
50
 62
4
100
AcDbLine
 10
63.498337
 20
-6.220255
 30
0.0
 11
63.435272
 21
-6.042808
 31
0.0
  0
LINE
  5
794
330
1F
100
AcDbEntity
  8
1
  6
CONTINUOUS
370
50
 62
4
100
AcDbLine
 10
65.69292399999999
 20
-9.550258
 30
0.0
 11
65.560966
 21
-9.183475
 31
0.0
  0
LINE
  5
795
330
1F
100
AcDbEntity
  8
1
  6
CONTINUOUS
370
50
 62
4
100
AcDbLine
 10
100.781502
 20
9.802539999999999
 30
0.0
 11
100.727837
 21
9.948654999999999
 31
0.0
  0
LINE
  5
796
330
1F
100
AcDbEntity
  8
1
  6
CONTINUOUS
370
50
 62
4
100
AcDbLine
 10
65.560966
 20
-9.183475
 30
0.0
 11
65.41057599999999
 21
-8.797568
 31
0.0
  0
LINE
  5
797
330
1F
100
AcDbEntity
  8
1
  6
CONTINUOUS
370
50
 62
4
100
AcDbLine
 10
100.727837
 20
9.948654999999999
 30
0.0
 11
100.668808
 21
10.090959
 31
0.0
  0
LINE
  5
798
330
1F
100
AcDbEntity
  8
1
  6
CONTINUOUS
370
50
 62
4
100
AcDbLine
 10
57.628468
 20
9.488218
 30
0.0
 11
57.59753
 21
9.562699
 31
0.0
  0
LINE
  5
799
330
1F
100
AcDbEntity
  8
1
  6
CONTINUOUS
370
50
 62
4
100
AcDbLine
 10
65.41057599999999
 20
-8.797568
 30
0.0
 11
65.24265299999999
 21
-8.394245
 31
0.0
  0
LINE
  5
79A
330
1F
100
AcDbEntity
  8
1
  6
CONTINUOUS
370
50
 62
4
100
AcDbLine
 10
65.24265299999999
 20
-8.394245
 30
0.0
 11
65.058037
 21
-7.975185
 31
0.0
  0
LINE
  5
79B
330
1F
100
AcDbEntity
  8
1
  6
CONTINUOUS
370
50
 62
4
100
AcDbLine
 10
63.576263
 20
-6.390299
 30
0.0
 11
63.498337
 21
-6.220255
 31
0.0
  0
LINE
  5
79C
330
1F
100
AcDbEntity
  8
1
  6
CONTINUOUS
370
50
 62
4
100
AcDbLine
 10
65.058037
 20
-7.975185
 30
0.0
 11
64.857597
 21
-7.542066999999999
 31
0.0
  0
LINE
  5
79D
330
1F
100
AcDbEntity
  8
1
  6
CONTINUOUS
370
50
 62
4
100
AcDbLine
 10
100.668808
 20
10.090959
 30
0.0
 11
100.602745
 21
10.233707
 31
0.0
  0
LINE
  5
79E
330
1F
100
AcDbEntity
  8
1
  6
CONTINUOUS
370
50
 62
4
100
AcDbLine
 10
98.487816
 20
5.364755
 30
0.0
 11
96.14119
 21
10.375951
 31
0.0
  0
LINE
  5
79F
330
1F
100
AcDbEntity
  8
1
  6
CONTINUOUS
370
50
 62
4
100
AcDbLine
 10
57.666683
 20
9.411099
 30
0.0
 11
57.628468
 21
9.488218
 31
0.0
  0
LINE
  5
7A0
330
1F
100
AcDbEntity
  8
1
  6
CONTINUOUS
370
50
 62
4
100
AcDbLine
 10
100.602745
 20
10.233707
 30
0.0
 11
100.530106
 21
10.375496
 31
0.0
  0
LINE
  5
7A1
330
1F
100
AcDbEntity
  8
1
  6
CONTINUOUS
370
50
 62
4
100
AcDbLine
 10
100.530106
 20
10.375496
 30
0.0
 11
100.45134
 21
10.514916
 31
0.0
  0
LINE
  5
7A2
330
1F
100
AcDbEntity
  8
1
  6
CONTINUOUS
370
50
 62
4
100
AcDbLine
 10
63.668903
 20
-6.552837999999999
 30
0.0
 11
63.576263
 21
-6.390299
 31
0.0
  0
LINE
  5
7A3
330
1F
100
AcDbEntity
  8
1
  6
CONTINUOUS
370
50
 62
4
100
AcDbLine
 10
57.712341
 20
9.33137
 30
0.0
 11
57.666683
 21
9.411099
 31
0.0
  0
LINE
  5
7A4
330
1F
100
AcDbEntity
  8
1
  6
CONTINUOUS
370
50
 62
4
100
AcDbLine
 10
100.45134
 20
10.514916
 30
0.0
 11
100.366905
 21
10.65056
 31
0.0
  0
LINE
  5
7A5
330
1F
100
AcDbEntity
  8
1
  6
CONTINUOUS
370
50
 62
4
100
AcDbLine
 10
57.757858
 20
9.260479
 30
0.0
 11
57.712341
 21
9.33137
 31
0.0
  0
LINE
  5
7A6
330
1F
100
AcDbEntity
  8
1
  6
CONTINUOUS
370
50
 62
4
100
AcDbLine
 10
100.366905
 20
10.65056
 30
0.0
 11
100.27742
 21
10.781166
 31
0.0
  0
LINE
  5
7A7
330
1F
100
AcDbEntity
  8
1
  6
CONTINUOUS
370
50
 62
4
100
AcDbLine
 10
66.324455
 20
10.980042
 30
0.0
 11
65.887695
 21
11.616316
 31
0.0
  0
LINE
  5
7A8
330
1F
100
AcDbEntity
  8
1
  6
CONTINUOUS
370
50
 62
4
100
AcDbLine
 10
63.776112
 20
-6.70777
 30
0.0
 11
63.668903
 21
-6.552837999999999
 31
0.0
  0
LINE
  5
7A9
330
1F
100
AcDbEntity
  8
1
  6
CONTINUOUS
370
50
 62
4
100
AcDbLine
 10
57.809151
 20
9.187681999999999
 30
0.0
 11
57.757858
 21
9.260479
 31
0.0
  0
LINE
  5
7AA
330
1F
100
AcDbEntity
  8
1
  6
CONTINUOUS
370
50
 62
4
100
AcDbLine
 10
100.27742
 20
10.781166
 30
0.0
 11
100.183922
 21
10.905909
 31
0.0
  0
LINE
  5
7AB
330
1F
100
AcDbEntity
  8
1
  6
CONTINUOUS
370
50
 62
4
100
AcDbLine
 10
57.866325
 20
9.112997
 30
0.0
 11
57.809151
 21
9.187681999999999
 31
0.0
  0
LINE
  5
7AC
330
1F
100
AcDbEntity
  8
1
  6
CONTINUOUS
370
50
 62
4
100
AcDbLine
 10
66.407066
 20
10.872976
 30
0.0
 11
66.324455
 21
10.980042
 31
0.0
  0
LINE
  5
7AD
330
1F
100
AcDbEntity
  8
1
  6
CONTINUOUS
370
50
 62
4
100
AcDbLine
 10
65.887909
 20
11.61595
 30
0.0
 11
65.791992
 21
11.737345
 31
0.0
  0
LINE
  5
7AE
330
1F
100
AcDbEntity
  8
1
  6
CONTINUOUS
370
50
 62
4
100
AcDbLine
 10
100.183922
 20
10.905909
 30
0.0
 11
100.087547
 21
11.024042
 31
0.0
  0
LINE
  5
7AF
330
1F
100
AcDbEntity
  8
1
  6
CONTINUOUS
370
50
 62
4
100
AcDbLine
 10
57.929485
 20
9.036442
 30
0.0
 11
57.866325
 21
9.112997
 31
0.0
  0
LINE
  5
7B0
330
1F
100
AcDbEntity
  8
1
  6
CONTINUOUS
370
50
 62
4
100
AcDbLine
 10
63.89773599999999
 20
-6.854996
 30
0.0
 11
63.776112
 21
-6.70777
 31
0.0
  0
LINE
  5
7B1
330
1F
100
AcDbEntity
  8
1
  6
CONTINUOUS
370
50
 62
4
100
AcDbLine
 10
66.82553899999999
 20
10.382281
 30
0.0
 11
66.407066
 21
10.872976
 31
0.0
  0
LINE
  5
7B2
330
1F
100
AcDbEntity
  8
1
  6
CONTINUOUS
370
50
 62
4
100
AcDbLine
 10
57.998741
 20
8.958034999999999
 30
0.0
 11
57.929485
 21
9.036442
 31
0.0
  0
LINE
  5
7B3
330
1F
100
AcDbEntity
  8
1
  6
CONTINUOUS
370
50
 62
4
100
AcDbLine
 10
100.087547
 20
11.024042
 30
0.0
 11
99.989418
 21
11.134823
 31
0.0
  0
LINE
  5
7B4
330
1F
100
AcDbEntity
  8
1
  6
CONTINUOUS
370
50
 62
4
100
AcDbLine
 10
58.0742
 20
8.877792
 30
0.0
 11
57.998741
 21
8.958034999999999
 31
0.0
  0
LINE
  5
7B5
330
1F
100
AcDbEntity
  8
1
  6
CONTINUOUS
370
50
 62
4
100
AcDbLine
 10
99.989418
 20
11.134823
 30
0.0
 11
99.89061
 21
11.237567
 31
0.0
  0
LINE
  5
7B6
330
1F
100
AcDbEntity
  8
1
  6
CONTINUOUS
370
50
 62
4
100
AcDbLine
 10
64.032501
 20
-6.993379
 30
0.0
 11
63.89773599999999
 21
-6.854996
 31
0.0
  0
LINE
  5
7B7
330
1F
100
AcDbEntity
  8
1
  6
CONTINUOUS
370
50
 62
4
100
AcDbLine
 10
67.275711
 20
9.934623
 30
0.0
 11
66.82553899999999
 21
10.382281
 31
0.0
  0
LINE
  5
7B8
330
1F
100
AcDbEntity
  8
1
  6
CONTINUOUS
370
50
 62
4
100
AcDbLine
 10
99.89061
 20
11.237567
 30
0.0
 11
99.723
 21
11.392739
 31
0.0
  0
LINE
  5
7B9
330
1F
100
AcDbEntity
  8
1
  6
CONTINUOUS
370
50
 62
4
100
AcDbLine
 10
58.437332
 20
8.546427999999999
 30
0.0
 11
58.0742
 21
8.877792
 31
0.0
  0
LINE
  5
7BA
330
1F
100
AcDbEntity
  8
1
  6
CONTINUOUS
370
50
 62
4
100
AcDbLine
 10
58.813938
 20
8.209468
 30
0.0
 11
58.437332
 21
8.546427999999999
 31
0.0
  0
LINE
  5
7BB
330
1F
100
AcDbEntity
  8
1
  6
CONTINUOUS
370
50
 62
4
100
AcDbLine
 10
64.178383
 20
-7.121741999999999
 30
0.0
 11
64.032501
 21
-6.993379
 31
0.0
  0
LINE
  5
7BC
330
1F
100
AcDbEntity
  8
1
  6
CONTINUOUS
370
50
 62
4
100
AcDbLine
 10
77.601685
 20
-0.011562
 30
0.0
 11
77.58841699999999
 21
0.0
 31
0.0
  0
LINE
  5
7BD
330
1F
100
AcDbEntity
  8
1
  6
CONTINUOUS
370
50
 62
4
100
AcDbLine
 10
59.205624
 20
7.868328999999999
 30
0.0
 11
58.813938
 21
8.209468
 31
0.0
  0
LINE
  5
7BE
330
1F
100
AcDbEntity
  8
1
  6
CONTINUOUS
370
50
 62
4
100
AcDbLine
 10
78.209381
 20
-0.539424
 30
0.0
 11
77.668076
 21
-0.069177
 31
0.0
  0
LINE
  5
7BF
330
1F
100
AcDbEntity
  8
1
  6
CONTINUOUS
370
50
 62
4
100
AcDbLine
 10
77.668076
 20
-0.069177
 30
0.0
 11
77.654808
 21
-0.05766
 31
0.0
  0
LINE
  5
7C0
330
1F
100
AcDbEntity
  8
1
  6
CONTINUOUS
370
50
 62
4
100
AcDbLine
 10
77.641533
 20
-0.04614
 30
0.0
 11
77.628258
 21
-0.034617
 31
0.0
  0
LINE
  5
7C1
330
1F
100
AcDbEntity
  8
1
  6
CONTINUOUS
370
50
 62
4
100
AcDbLine
 10
77.654808
 20
-0.05766
 30
0.0
 11
77.641533
 21
-0.04614
 31
0.0
  0
LINE
  5
7C2
330
1F
100
AcDbEntity
  8
1
  6
CONTINUOUS
370
50
 62
4
100
AcDbLine
 10
77.628258
 20
-0.034617
 30
0.0
 11
77.614975
 21
-0.023092
 31
0.0
  0
LINE
  5
7C3
330
1F
100
AcDbEntity
  8
1
  6
CONTINUOUS
370
50
 62
4
100
AcDbLine
 10
77.614975
 20
-0.023092
 30
0.0
 11
77.601685
 21
-0.011562
 31
0.0
  0
LINE
  5
7C4
330
1F
100
AcDbEntity
  8
1
  6
CONTINUOUS
370
50
 62
4
100
AcDbLine
 10
77.58841699999999
 20
0.0
 30
0.0
 11
77.081932
 21
0.436604
 31
0.0
  0
LINE
  5
7C5
330
1F
100
AcDbEntity
  8
1
  6
CONTINUOUS
370
50
 62
4
100
AcDbLine
 10
78.76207
 20
-1.014512
 30
0.0
 11
78.209381
 21
-0.539424
 31
0.0
  0
LINE
  5
7C6
330
1F
100
AcDbEntity
  8
1
  6
CONTINUOUS
370
50
 62
4
100
AcDbLine
 10
78.185547
 20
1.949492
 30
0.0
 11
77.615189
 21
2.437309
 31
0.0
  0
LINE
  5
7C7
330
1F
100
AcDbEntity
  8
1
  6
CONTINUOUS
370
50
 62
4
100
AcDbLine
 10
78.75767499999999
 20
1.461144
 30
0.0
 11
78.185547
 21
1.949492
 31
0.0
  0
LINE
  5
7C8
330
1F
100
AcDbEntity
  8
1
  6
CONTINUOUS
370
50
 62
4
100
AcDbLine
 10
77.081932
 20
0.436604
 30
0.0
 11
76.57251
 21
0.870771
 31
0.0
  0
LINE
  5
7C9
330
1F
100
AcDbEntity
  8
1
  6
CONTINUOUS
370
50
 62
4
100
AcDbLine
 10
79.333275
 20
0.9734849999999999
 30
0.0
 11
78.75767499999999
 21
1.461144
 31
0.0
  0
LINE
  5
7CA
330
1F
100
AcDbEntity
  8
1
  6
CONTINUOUS
370
50
 62
4
100
AcDbLine
 10
79.320015
 20
-1.487157
 30
0.0
 11
78.76207
 21
-1.014512
 31
0.0
  0
LINE
  5
7CB
330
1F
100
AcDbEntity
  8
1
  6
CONTINUOUS
370
50
 62
4
100
AcDbLine
 10
77.615189
 20
2.437309
 30
0.0
 11
77.03396599999999
 21
2.928066
 31
0.0
  0
LINE
  5
7CC
330
1F
100
AcDbEntity
  8
1
  6
CONTINUOUS
370
50
 62
4
100
AcDbLine
 10
76.57251
 20
0.870771
 30
0.0
 11
76.061089
 21
1.301604
 31
0.0
  0
LINE
  5
7CD
330
1F
100
AcDbEntity
  8
1
  6
CONTINUOUS
370
50
 62
4
100
AcDbLine
 10
59.611732
 20
7.526247
 30
0.0
 11
59.205624
 21
7.868328999999999
 31
0.0
  0
LINE
  5
7CE
330
1F
100
AcDbEntity
  8
1
  6
CONTINUOUS
370
50
 62
4
100
AcDbLine
 10
79.91265899999999
 20
0.486366
 30
0.0
 11
79.333275
 21
0.9734849999999999
 31
0.0
  0
LINE
  5
7CF
330
1F
100
AcDbEntity
  8
1
  6
CONTINUOUS
370
50
 62
4
100
AcDbLine
 10
67.758133
 20
9.529081999999999
 30
0.0
 11
67.275711
 21
9.934623
 31
0.0
  0
LINE
  5
7D0
330
1F
100
AcDbEntity
  8
1
  6
CONTINUOUS
370
50
 62
4
100
AcDbLine
 10
80.49468999999999
 20
0.0
 30
0.0
 11
79.91265899999999
 21
0.486366
 31
0.0
  0
LINE
  5
7D1
330
1F
100
AcDbEntity
  8
1
  6
CONTINUOUS
370
50
 62
4
100
AcDbLine
 10
79.880241
 20
-1.955038
 30
0.0
 11
79.320015
 21
-1.487157
 31
0.0
  0
LINE
  5
7D2
330
1F
100
AcDbEntity
  8
1
  6
CONTINUOUS
370
50
 62
4
100
AcDbLine
 10
76.061089
 20
1.301604
 30
0.0
 11
75.54766099999999
 21
1.72909
 31
0.0
  0
LINE
  5
7D3
330
1F
100
AcDbEntity
  8
1
  6
CONTINUOUS
370
50
 62
4
100
AcDbLine
 10
80.973885
 20
-0.39697
 30
0.0
 11
80.494957
 21
0.000317
 31
0.0
  0
LINE
  5
7D4
330
1F
100
AcDbEntity
  8
1
  6
CONTINUOUS
370
50
 62
4
100
AcDbLine
 10
81.45369699999999
 20
-0.792879
 30
0.0
 11
80.973885
 21
-0.39697
 31
0.0
  0
LINE
  5
7D5
330
1F
100
AcDbEntity
  8
1
  6
CONTINUOUS
370
50
 62
4
100
AcDbLine
 10
77.03396599999999
 20
2.928066
 30
0.0
 11
76.43294499999999
 21
3.423831
 31
0.0
  0
LINE
  5
7D6
330
1F
100
AcDbEntity
  8
1
  6
CONTINUOUS
370
50
 62
4
100
AcDbLine
 10
80.442245
 20
-2.417748
 30
0.0
 11
79.880241
 21
-1.955038
 31
0.0
  0
LINE
  5
7D7
330
1F
100
AcDbEntity
  8
1
  6
CONTINUOUS
370
50
 62
4
100
AcDbLine
 10
75.54766099999999
 20
1.72909
 30
0.0
 11
75.032654
 21
2.152948
 31
0.0
  0
LINE
  5
7D8
330
1F
100
AcDbEntity
  8
1
  6
CONTINUOUS
370
50
 62
4
100
AcDbLine
 10
81.933922
 20
-1.187112
 30
0.0
 11
81.45369699999999
 21
-0.792879
 31
0.0
  0
LINE
  5
7D9
330
1F
100
AcDbEntity
  8
1
  6
CONTINUOUS
370
50
 62
4
100
AcDbLine
 10
82.41407
 20
-1.579372
 30
0.0
 11
81.933922
 21
-1.187112
 31
0.0
  0
LINE
  5
7DA
330
1F
100
AcDbEntity
  8
1
  6
CONTINUOUS
370
50
 62
4
100
AcDbLine
 10
75.032654
 20
2.152948
 30
0.0
 11
74.516594
 21
2.572844
 31
0.0
  0
LINE
  5
7DB
330
1F
100
AcDbEntity
  8
1
  6
CONTINUOUS
370
50
 62
4
100
AcDbLine
 10
82.893654
 20
-1.969362
 30
0.0
 11
82.41407
 21
-1.579372
 31
0.0
  0
LINE
  5
7DC
330
1F
100
AcDbEntity
  8
1
  6
CONTINUOUS
370
50
 62
4
100
AcDbLine
 10
81.006256
 20
-2.875508
 30
0.0
 11
80.442245
 21
-2.417748
 31
0.0
  0
LINE
  5
7DD
330
1F
100
AcDbEntity
  8
1
  6
CONTINUOUS
370
50
 62
4
100
AcDbLine
 10
60.03265399999999
 20
7.185194999999999
 30
0.0
 11
59.611732
 21
7.526247
 31
0.0
  0
LINE
  5
7DE
330
1F
100
AcDbEntity
  8
1
  6
CONTINUOUS
370
50
 62
4
100
AcDbLine
 10
83.37219999999999
 20
-2.356786
 30
0.0
 11
82.893654
 21
-1.969362
 31
0.0
  0
LINE
  5
7DF
330
1F
100
AcDbEntity
  8
1
  6
CONTINUOUS
370
50
 62
4
100
AcDbLine
 10
99.723
 20
11.392739
 30
0.0
 11
99.54873699999999
 21
11.533258
 31
0.0
  0
LINE
  5
7E0
330
1F
100
AcDbEntity
  8
1
  6
CONTINUOUS
370
50
 62
4
100
AcDbLine
 10
76.43294499999999
 20
3.423831
 30
0.0
 11
75.82751499999999
 21
3.912004
 31
0.0
  0
LINE
  5
7E1
330
1F
100
AcDbEntity
  8
1
  6
CONTINUOUS
370
50
 62
4
100
AcDbLine
 10
83.849358
 20
-2.741477
 30
0.0
 11
83.37219999999999
 21
-2.356786
 31
0.0
  0
LINE
  5
7E2
330
1F
100
AcDbEntity
  8
1
  6
CONTINUOUS
370
50
 62
4
100
AcDbLine
 10
74.516594
 20
2.572844
 30
0.0
 11
74.0
 21
2.988444
 31
0.0
  0
LINE
  5
7E3
330
1F
100
AcDbEntity
  8
1
  6
CONTINUOUS
370
50
 62
4
100
AcDbLine
 10
84.326027
 20
-3.124362
 30
0.0
 11
83.849358
 21
-2.741477
 31
0.0
  0
LINE
  5
7E4
330
1F
100
AcDbEntity
  8
1
  6
CONTINUOUS
370
50
 62
4
100
AcDbLine
 10
84.802139
 20
-3.505429
 30
0.0
 11
84.326027
 21
-3.124362
 31
0.0
  0
LINE
  5
7E5
330
1F
100
AcDbEntity
  8
1
  6
CONTINUOUS
370
50
 62
4
100
AcDbLine
 10
81.572487
 20
-3.328661
 30
0.0
 11
81.006256
 21
-2.875508
 31
0.0
  0
LINE
  5
7E6
330
1F
100
AcDbEntity
  8
1
  6
CONTINUOUS
370
50
 62
4
100
AcDbLine
 10
85.277321
 20
-3.884362
 30
0.0
 11
84.802139
 21
-3.505429
 31
0.0
  0
LINE
  5
7E7
330
1F
100
AcDbEntity
  8
1
  6
CONTINUOUS
370
50
 62
4
100
AcDbLine
 10
65.791992
 20
11.737345
 30
0.0
 11
65.669006
 21
11.835122
 31
0.0
  0
LINE
  5
7E8
330
1F
100
AcDbEntity
  8
1
  6
CONTINUOUS
370
50
 62
4
100
AcDbLine
 10
85.751205
 20
-4.260847
 30
0.0
 11
85.277321
 21
-3.884362
 31
0.0
  0
LINE
  5
7E9
330
1F
100
AcDbEntity
  8
1
  6
CONTINUOUS
370
50
 62
4
100
AcDbLine
 10
86.223412
 20
-4.63457
 30
0.0
 11
85.751205
 21
-4.260847
 31
0.0
  0
LINE
  5
7EA
330
1F
100
AcDbEntity
  8
1
  6
CONTINUOUS
370
50
 62
4
100
AcDbLine
 10
82.14016
 20
-3.776755
 30
0.0
 11
81.572487
 21
-3.328661
 31
0.0
  0
LINE
  5
7EB
330
1F
100
AcDbEntity
  8
1
  6
CONTINUOUS
370
50
 62
4
100
AcDbLine
 10
86.693275
 20
-5.005031
 30
0.0
 11
86.223412
 21
-4.63457
 31
0.0
  0
LINE
  5
7EC
330
1F
100
AcDbEntity
  8
1
  6
CONTINUOUS
370
50
 62
4
100
AcDbLine
 10
75.82751499999999
 20
3.912004
 30
0.0
 11
75.219681
 21
4.391232
 31
0.0
  0
LINE
  5
7ED
330
1F
100
AcDbEntity
  8
1
  6
CONTINUOUS
370
50
 62
4
100
AcDbLine
 10
87.154213
 20
-5.367556
 30
0.0
 11
86.693275
 21
-5.005031
 31
0.0
  0
LINE
  5
7EE
330
1F
100
AcDbEntity
  8
1
  6
CONTINUOUS
370
50
 62
4
100
AcDbLine
 10
87.609528
 20
-5.722233999999999
 30
0.0
 11
87.154213
 21
-5.367556
 31
0.0
  0
LINE
  5
7EF
330
1F
100
AcDbEntity
  8
1
  6
CONTINUOUS
370
50
 62
4
100
AcDbLine
 10
82.708473
 20
-4.219339
 30
0.0
 11
82.14016
 21
-3.776755
 31
0.0
  0
LINE
  5
7F0
330
1F
100
AcDbEntity
  8
1
  6
CONTINUOUS
370
50
 62
4
100
AcDbLine
 10
60.469341
 20
6.846564
 30
0.0
 11
60.03265399999999
 21
7.185194999999999
 31
0.0
  0
LINE
  5
7F1
330
1F
100
AcDbEntity
  8
1
  6
CONTINUOUS
370
50
 62
4
100
AcDbLine
 10
75.219681
 20
4.391232
 30
0.0
 11
74.610237
 21
4.861052
 31
0.0
  0
LINE
  5
7F2
330
1F
100
AcDbEntity
  8
1
  6
CONTINUOUS
370
50
 62
4
100
AcDbLine
 10
83.276634
 20
-4.655959
 30
0.0
 11
82.708473
 21
-4.219339
 31
0.0
  0
LINE
  5
7F3
330
1F
100
AcDbEntity
  8
1
  6
CONTINUOUS
370
50
 62
4
100
AcDbLine
 10
88.06710799999999
 20
-6.071787
 30
0.0
 11
87.609528
 21
-5.722233999999999
 31
0.0
  0
LINE
  5
7F4
330
1F
100
AcDbEntity
  8
1
  6
CONTINUOUS
370
50
 62
4
100
AcDbLine
 10
64.33461799999999
 20
-7.240435
 30
0.0
 11
64.178383
 21
-7.121741999999999
 31
0.0
  0
LINE
  5
7F5
330
1F
100
AcDbEntity
  8
1
  6
CONTINUOUS
370
50
 62
4
100
AcDbLine
 10
83.843857
 20
-5.086162
 30
0.0
 11
83.276634
 21
-4.655959
 31
0.0
  0
LINE
  5
7F6
330
1F
100
AcDbEntity
  8
1
  6
CONTINUOUS
370
50
 62
4
100
AcDbLine
 10
74.001434
 20
2.453411
 30
0.0
 11
74.001389
 21
2.453445
 31
0.0
  0
LINE
  5
7F7
330
1F
100
AcDbEntity
  8
1
  6
CONTINUOUS
370
50
 62
4
100
AcDbLine
 10
74.001228
 20
2.453546
 30
0.0
 11
74.001183
 21
2.45358
 31
0.0
  0
LINE
  5
7F8
330
1F
100
AcDbEntity
  8
1
  6
CONTINUOUS
370
50
 62
4
100
AcDbLine
 10
74.00102199999999
 20
2.453682
 30
0.0
 11
74.00097699999999
 21
2.453716
 31
0.0
  0
LINE
  5
7F9
330
1F
100
AcDbEntity
  8
1
  6
CONTINUOUS
370
50
 62
4
100
AcDbLine
 10
74.610237
 20
4.861052
 30
0.0
 11
74.0
 21
5.321003
 31
0.0
  0
LINE
  5
7FA
330
1F
100
AcDbEntity
  8
1
  6
CONTINUOUS
370
50
 62
4
100
AcDbLine
 10
84.409348
 20
-5.509496
 30
0.0
 11
83.843857
 21
-5.086162
 31
0.0
  0
LINE
  5
7FB
330
1F
100
AcDbEntity
  8
1
  6
CONTINUOUS
370
50
 62
4
100
AcDbLine
 10
88.53139499999999
 20
-6.416869999999999
 30
0.0
 11
88.06710799999999
 21
-6.071787
 31
0.0
  0
LINE
  5
7FC
330
1F
100
AcDbEntity
  8
1
  6
CONTINUOUS
370
50
 62
4
100
AcDbLine
 10
74.001587
 20
2.453309
 30
0.0
 11
74.001541
 21
2.453343
 31
0.0
  0
LINE
  5
7FD
330
1F
100
AcDbEntity
  8
1
  6
CONTINUOUS
370
50
 62
4
100
AcDbLine
 10
74.000664
 20
2.453919
 30
0.0
 11
74.000618
 21
2.453953
 31
0.0
  0
LINE
  5
7FE
330
1F
100
AcDbEntity
  8
1
  6
CONTINUOUS
370
50
 62
4
100
AcDbLine
 10
74.000458
 20
2.454054
 30
0.0
 11
74.000412
 21
2.454088
 31
0.0
  0
LINE
  5
7FF
330
1F
100
AcDbEntity
  8
1
  6
CONTINUOUS
370
50
 62
4
100
AcDbLine
 10
74.000305
 20
2.454156
 30
0.0
 11
74.000259
 21
2.45419
 31
0.0
  0
LINE
  5
800
330
1F
100
AcDbEntity
  8
1
  6
CONTINUOUS
370
50
 62
4
100
AcDbLine
 10
84.972717
 20
-5.925815
 30
0.0
 11
84.409348
 21
-5.509496
 31
0.0
  0
LINE
  5
801
330
1F
100
AcDbEntity
  8
1
  6
CONTINUOUS
370
50
 62
4
100
AcDbLine
 10
60.920238
 20
6.513368
 30
0.0
 11
60.469341
 21
6.846564
 31
0.0
  0
LINE
  5
802
330
1F
100
AcDbEntity
  8
1
  6
CONTINUOUS
370
50
 62
4
100
AcDbLine
 10
85.534683
 20
-6.335666
 30
0.0
 11
84.972717
 21
-5.925815
 31
0.0
  0
LINE
  5
803
330
1F
100
AcDbEntity
  8
1
  6
CONTINUOUS
370
50
 62
4
100
AcDbLine
 10
88.99782599999999
 20
-6.753819
 30
0.0
 11
88.53139499999999
 21
-6.416869999999999
 31
0.0
  0
LINE
  5
804
330
1F
100
AcDbEntity
  8
1
  6
CONTINUOUS
370
50
 62
4
100
AcDbLine
 10
86.094849
 20
-6.738595
 30
0.0
 11
85.534683
 21
-6.335666
 31
0.0
  0
LINE
  5
805
330
1F
100
AcDbEntity
  8
1
  6
CONTINUOUS
370
50
 62
4
100
AcDbLine
 10
74.00086999999999
 20
2.453784
 30
0.0
 11
74.000824
 21
2.453817
 31
0.0
  0
LINE
  5
806
330
1F
100
AcDbEntity
  8
1
  6
CONTINUOUS
370
50
 62
4
100
AcDbLine
 10
74.00009899999999
 20
2.454292
 30
0.0
 11
74.000053
 21
2.454325
 31
0.0
  0
LINE
  5
807
330
1F
100
AcDbEntity
  8
1
  6
CONTINUOUS
370
50
 62
4
100
AcDbLine
 10
77.669769
 20
-0.070535
 30
0.0
 11
77.058426
 21
0.3648
 31
0.0
  0
LINE
  5
808
330
1F
100
AcDbEntity
  8
1
  6
CONTINUOUS
370
50
 62
4
100
AcDbLine
 10
86.652718
 20
-7.134059
 30
0.0
 11
86.094849
 21
-6.738595
 31
0.0
  0
LINE
  5
809
330
1F
100
AcDbEntity
  8
1
  6
CONTINUOUS
370
50
 62
4
100
AcDbLine
 10
68.264877
 20
9.171866999999999
 30
0.0
 11
67.758133
 21
9.529081999999999
 31
0.0
  0
LINE
  5
80A
330
1F
100
AcDbEntity
  8
1
  6
CONTINUOUS
370
50
 62
4
100
AcDbLine
 10
77.058426
 20
0.3648
 30
0.0
 11
76.44709
 21
0.794164
 31
0.0
  0
LINE
  5
80B
330
1F
100
AcDbEntity
  8
1
  6
CONTINUOUS
370
50
 62
4
100
AcDbLine
 10
89.465912
 20
-7.082389999999999
 30
0.0
 11
88.99782599999999
 21
-6.753819
 31
0.0
  0
LINE
  5
80C
330
1F
100
AcDbEntity
  8
1
  6
CONTINUOUS
370
50
 62
4
100
AcDbLine
 10
61.385551
 20
6.186901
 30
0.0
 11
60.920238
 21
6.513368
 31
0.0
  0
LINE
  5
80D
330
1F
100
AcDbEntity
  8
1
  6
CONTINUOUS
370
50
 62
4
100
AcDbLine
 10
99.54873699999999
 20
11.533258
 30
0.0
 11
99.36870599999999
 21
11.65906
 31
0.0
  0
LINE
  5
80E
330
1F
100
AcDbEntity
  8
1
  6
CONTINUOUS
370
50
 62
4
100
AcDbLine
 10
87.20764899999999
 20
-7.521415999999999
 30
0.0
 11
86.652718
 21
-7.134059
 31
0.0
  0
LINE
  5
80F
330
1F
100
AcDbEntity
  8
1
  6
CONTINUOUS
370
50
 62
4
100
AcDbLine
 10
76.44709
 20
0.794164
 30
0.0
 11
75.835754
 21
1.217598
 31
0.0
  0
LINE
  5
810
330
1F
100
AcDbEntity
  8
1
  6
CONTINUOUS
370
50
 62
4
100
AcDbLine
 10
87.757881
 20
-7.897532
 30
0.0
 11
87.20764899999999
 21
-7.521415999999999
 31
0.0
  0
LINE
  5
811
330
1F
100
AcDbEntity
  8
1
  6
CONTINUOUS
370
50
 62
4
100
AcDbLine
 10
75.835754
 20
1.217598
 30
0.0
 11
75.224419
 21
1.635147
 31
0.0
  0
LINE
  5
812
330
1F
100
AcDbEntity
  8
1
  6
CONTINUOUS
370
50
 62
4
100
AcDbLine
 10
89.93603499999999
 20
-7.402911
 30
0.0
 11
89.465912
 21
-7.082389999999999
 31
0.0
  0
LINE
  5
813
330
1F
100
AcDbEntity
  8
1
  6
CONTINUOUS
370
50
 62
4
100
AcDbLine
 10
75.224419
 20
1.635147
 30
0.0
 11
74.613083
 21
2.046939
 31
0.0
  0
LINE
  5
814
330
1F
100
AcDbEntity
  8
1
  6
CONTINUOUS
370
50
 62
4
100
AcDbLine
 10
74.613083
 20
2.046939
 30
0.0
 11
74.001747
 21
2.453208
 31
0.0
  0
LINE
  5
815
330
1F
100
AcDbEntity
  8
1
  6
CONTINUOUS
370
50
 62
4
100
AcDbLine
 10
61.864815
 20
5.86878
 30
0.0
 11
61.385551
 21
6.186901
 31
0.0
  0
LINE
  5
816
330
1F
100
AcDbEntity
  8
1
  6
CONTINUOUS
370
50
 62
4
100
AcDbLine
 10
90.40787499999999
 20
-7.715322
 30
0.0
 11
89.93603499999999
 21
-7.402911
 31
0.0
  0
LINE
  5
817
330
1F
100
AcDbEntity
  8
1
  6
CONTINUOUS
370
50
 62
4
100
AcDbLine
 10
74.000053
 20
2.454325
 30
0.0
 11
74.0
 21
2.45436
 31
0.0
  0
LINE
  5
818
330
1F
100
AcDbEntity
  8
1
  6
CONTINUOUS
370
50
 62
4
100
AcDbLine
 10
64.500412
 20
-7.349816
 30
0.0
 11
64.33461799999999
 21
-7.240435
 31
0.0
  0
LINE
  5
819
330
1F
100
AcDbEntity
  8
1
  6
CONTINUOUS
370
50
 62
4
100
AcDbLine
 10
88.317619
 20
-8.266226999999999
 30
0.0
 11
87.757881
 21
-7.897532
 31
0.0
  0
LINE
  5
81A
330
1F
100
AcDbEntity
  8
1
  6
CONTINUOUS
370
50
 62
4
100
AcDbLine
 10
90.88095899999999
 20
-8.019451
 30
0.0
 11
90.40787499999999
 21
-7.715322
 31
0.0
  0
LINE
  5
81B
330
1F
100
AcDbEntity
  8
1
  6
CONTINUOUS
370
50
 62
4
100
AcDbLine
 10
74.001747
 20
2.453208
 30
0.0
 11
74.001694
 21
2.453242
 31
0.0
  0
LINE
  5
81C
330
1F
100
AcDbEntity
  8
1
  6
CONTINUOUS
370
50
 62
4
100
AcDbLine
 10
74.00164
 20
2.453275
 30
0.0
 11
74.001587
 21
2.453309
 31
0.0
  0
LINE
  5
81D
330
1F
100
AcDbEntity
  8
1
  6
CONTINUOUS
370
50
 62
4
100
AcDbLine
 10
74.001541
 20
2.453343
 30
0.0
 11
74.001488
 21
2.453377
 31
0.0
  0
LINE
  5
81E
330
1F
100
AcDbEntity
  8
1
  6
CONTINUOUS
370
50
 62
4
100
AcDbLine
 10
74.00112899999999
 20
2.453614
 30
0.0
 11
74.001076
 21
2.453648
 31
0.0
  0
LINE
  5
81F
330
1F
100
AcDbEntity
  8
1
  6
CONTINUOUS
370
50
 62
4
100
AcDbLine
 10
74.000923
 20
2.45375
 30
0.0
 11
74.00086999999999
 21
2.453784
 31
0.0
  0
LINE
  5
820
330
1F
100
AcDbEntity
  8
1
  6
CONTINUOUS
370
50
 62
4
100
AcDbLine
 10
74.000824
 20
2.453817
 30
0.0
 11
74.000771
 21
2.453851
 31
0.0
  0
LINE
  5
821
330
1F
100
AcDbEntity
  8
1
  6
CONTINUOUS
370
50
 62
4
100
AcDbLine
 10
74.000717
 20
2.453885
 30
0.0
 11
74.000664
 21
2.453919
 31
0.0
  0
LINE
  5
822
330
1F
100
AcDbEntity
  8
1
  6
CONTINUOUS
370
50
 62
4
100
AcDbLine
 10
74.000618
 20
2.453953
 30
0.0
 11
74.000565
 21
2.453987
 31
0.0
  0
LINE
  5
823
330
1F
100
AcDbEntity
  8
1
  6
CONTINUOUS
370
50
 62
4
100
AcDbLine
 10
74.000412
 20
2.454088
 30
0.0
 11
74.000359
 21
2.454122
 31
0.0
  0
LINE
  5
824
330
1F
100
AcDbEntity
  8
1
  6
CONTINUOUS
370
50
 62
4
100
AcDbLine
 10
74.000259
 20
2.45419
 30
0.0
 11
74.000153
 21
2.454258
 31
0.0
  0
LINE
  5
825
330
1F
100
AcDbEntity
  8
1
  6
CONTINUOUS
370
50
 62
4
100
AcDbLine
 10
74.001488
 20
2.453377
 30
0.0
 11
74.001434
 21
2.453411
 31
0.0
  0
LINE
  5
826
330
1F
100
AcDbEntity
  8
1
  6
CONTINUOUS
370
50
 62
4
100
AcDbLine
 10
74.001389
 20
2.453445
 30
0.0
 11
74.001335
 21
2.453479
 31
0.0
  0
LINE
  5
827
330
1F
100
AcDbEntity
  8
1
  6
CONTINUOUS
370
50
 62
4
100
AcDbLine
 10
74.001282
 20
2.453512
 30
0.0
 11
74.001228
 21
2.453546
 31
0.0
  0
LINE
  5
828
330
1F
100
AcDbEntity
  8
1
  6
CONTINUOUS
370
50
 62
4
100
AcDbLine
 10
74.001183
 20
2.45358
 30
0.0
 11
74.00112899999999
 21
2.453614
 31
0.0
  0
LINE
  5
829
330
1F
100
AcDbEntity
  8
1
  6
CONTINUOUS
370
50
 62
4
100
AcDbLine
 10
74.001076
 20
2.453648
 30
0.0
 11
74.00102199999999
 21
2.453682
 31
0.0
  0
LINE
  5
82A
330
1F
100
AcDbEntity
  8
1
  6
CONTINUOUS
370
50
 62
4
100
AcDbLine
 10
74.00097699999999
 20
2.453716
 30
0.0
 11
74.000923
 21
2.45375
 31
0.0
  0
LINE
  5
82B
330
1F
100
AcDbEntity
  8
1
  6
CONTINUOUS
370
50
 62
4
100
AcDbLine
 10
74.000771
 20
2.453851
 30
0.0
 11
74.000717
 21
2.453885
 31
0.0
  0
LINE
  5
82C
330
1F
100
AcDbEntity
  8
1
  6
CONTINUOUS
370
50
 62
4
100
AcDbLine
 10
74.000565
 20
2.453987
 30
0.0
 11
74.000511
 21
2.454021
 31
0.0
  0
LINE
  5
82D
330
1F
100
AcDbEntity
  8
1
  6
CONTINUOUS
370
50
 62
4
100
AcDbLine
 10
74.000359
 20
2.454122
 30
0.0
 11
74.000305
 21
2.454156
 31
0.0
  0
LINE
  5
82E
330
1F
100
AcDbEntity
  8
1
  6
CONTINUOUS
370
50
 62
4
100
AcDbLine
 10
74.000153
 20
2.454258
 30
0.0
 11
74.00009899999999
 21
2.454292
 31
0.0
  0
LINE
  5
82F
330
1F
100
AcDbEntity
  8
1
  6
CONTINUOUS
370
50
 62
4
100
AcDbLine
 10
88.891441
 20
-8.626747
 30
0.0
 11
88.317619
 21
-8.266226999999999
 31
0.0
  0
LINE
  5
830
330
1F
100
AcDbEntity
  8
1
  6
CONTINUOUS
370
50
 62
4
100
AcDbLine
 10
62.356342
 20
5.561023
 30
0.0
 11
61.864815
 21
5.86878
 31
0.0
  0
LINE
  5
831
330
1F
100
AcDbEntity
  8
1
  6
CONTINUOUS
370
50
 62
4
100
AcDbLine
 10
91.35479
 20
-8.315127
 30
0.0
 11
90.88095899999999
 21
-8.019451
 31
0.0
  0
LINE
  5
832
330
1F
100
AcDbEntity
  8
1
  6
CONTINUOUS
370
50
 62
4
100
AcDbLine
 10
74.001335
 20
2.453479
 30
0.0
 11
74.001282
 21
2.453512
 31
0.0
  0
LINE
  5
833
330
1F
100
AcDbEntity
  8
1
  6
CONTINUOUS
370
50
 62
4
100
AcDbLine
 10
74.000511
 20
2.454021
 30
0.0
 11
74.000458
 21
2.454054
 31
0.0
  0
LINE
  5
834
330
1F
100
AcDbEntity
  8
1
  6
CONTINUOUS
370
50
 62
4
100
AcDbLine
 10
74.001694
 20
2.453242
 30
0.0
 11
74.00164
 21
2.453275
 31
0.0
  0
LINE
  5
835
330
1F
100
AcDbEntity
  8
1
  6
CONTINUOUS
370
50
 62
4
100
AcDbLine
 10
91.82888
 20
-8.602178
 30
0.0
 11
91.35479
 21
-8.315127
 31
0.0
  0
LINE
  5
836
330
1F
100
AcDbEntity
  8
1
  6
CONTINUOUS
370
50
 62
4
100
AcDbLine
 10
99.36870599999999
 20
11.65906
 30
0.0
 11
99.184044
 21
11.769924
 31
0.0
  0
LINE
  5
837
330
1F
100
AcDbEntity
  8
1
  6
CONTINUOUS
370
50
 62
4
100
AcDbLine
 10
89.467941
 20
-8.97217
 30
0.0
 11
88.891441
 21
-8.626747
 31
0.0
  0
LINE
  5
838
330
1F
100
AcDbEntity
  8
1
  6
CONTINUOUS
370
50
 62
4
100
AcDbLine
 10
99.789436
 20
-9.987178
 30
0.0
 11
99.74748199999999
 21
-9.962284
 31
0.0
  0
LINE
  5
839
330
1F
100
AcDbEntity
  8
1
  6
CONTINUOUS
370
50
 62
4
100
AcDbLine
 10
62.860119
 20
5.264297
 30
0.0
 11
62.356342
 21
5.561023
 31
0.0
  0
LINE
  5
83A
330
1F
100
AcDbEntity
  8
1
  6
CONTINUOUS
370
50
 62
4
100
AcDbLine
 10
92.30274999999999
 20
-8.880429999999999
 30
0.0
 11
91.82888
 21
-8.602178
 31
0.0
  0
LINE
  5
83B
330
1F
100
AcDbEntity
  8
1
  6
CONTINUOUS
370
50
 62
4
100
AcDbLine
 10
68.79671499999999
 20
8.861927999999999
 30
0.0
 11
68.264877
 21
9.171866999999999
 31
0.0
  0
LINE
  5
83C
330
1F
100
AcDbEntity
  8
1
  6
CONTINUOUS
370
50
 62
4
100
AcDbLine
 10
64.674995
 20
-7.450240999999999
 30
0.0
 11
64.500412
 21
-7.349816
 31
0.0
  0
LINE
  5
83D
330
1F
100
AcDbEntity
  8
1
  6
CONTINUOUS
370
50
 62
4
100
AcDbLine
 10
90.046432
 20
-9.302336
 30
0.0
 11
89.467941
 21
-8.97217
 31
0.0
  0
LINE
  5
83E
330
1F
100
AcDbEntity
  8
1
  6
CONTINUOUS
370
50
 62
4
100
AcDbLine
 10
92.775894
 20
-9.149714
 30
0.0
 11
92.30274999999999
 21
-8.880429999999999
 31
0.0
  0
LINE
  5
83F
330
1F
100
AcDbEntity
  8
1
  6
CONTINUOUS
370
50
 62
4
100
AcDbLine
 10
63.376053
 20
4.979312
 30
0.0
 11
62.860119
 21
5.264297
 31
0.0
  0
LINE
  5
840
330
1F
100
AcDbEntity
  8
1
  6
CONTINUOUS
370
50
 62
4
100
AcDbLine
 10
93.248329
 20
-9.410174999999999
 30
0.0
 11
92.775894
 21
-9.149714
 31
0.0
  0
LINE
  5
841
330
1F
100
AcDbEntity
  8
1
  6
CONTINUOUS
370
50
 62
4
100
AcDbLine
 10
90.626328
 20
-9.617125
 30
0.0
 11
90.046432
 21
-9.302336
 31
0.0
  0
LINE
  5
842
330
1F
100
AcDbEntity
  8
1
  6
CONTINUOUS
370
50
 62
4
100
AcDbLine
 10
93.720779
 20
-9.662326
 30
0.0
 11
93.248329
 21
-9.410174999999999
 31
0.0
  0
LINE
  5
843
330
1F
100
AcDbEntity
  8
1
  6
CONTINUOUS
370
50
 62
4
100
AcDbLine
 10
99.83208499999999
 20
-10.009711
 30
0.0
 11
99.789436
 21
-9.987178
 31
0.0
  0
LINE
  5
844
330
1F
100
AcDbEntity
  8
1
  6
CONTINUOUS
370
50
 62
4
100
AcDbLine
 10
63.902454
 20
4.707536999999999
 30
0.0
 11
63.376053
 21
4.979312
 31
0.0
  0
LINE
  5
845
330
1F
100
AcDbEntity
  8
1
  6
CONTINUOUS
370
50
 62
4
100
AcDbLine
 10
94.19294
 20
-9.905907
 30
0.0
 11
93.720779
 21
-9.662326
 31
0.0
  0
LINE
  5
846
330
1F
100
AcDbEntity
  8
1
  6
CONTINUOUS
370
50
 62
4
100
AcDbLine
 10
91.20805399999999
 20
-9.916979
 30
0.0
 11
90.626328
 21
-9.617125
 31
0.0
  0
LINE
  5
847
330
1F
100
AcDbEntity
  8
1
  6
CONTINUOUS
370
50
 62
4
100
AcDbLine
 10
99.184044
 20
11.769924
 30
0.0
 11
98.995392
 21
11.865987
 31
0.0
  0
LINE
  5
848
330
1F
100
AcDbEntity
  8
1
  6
CONTINUOUS
370
50
 62
4
100
AcDbLine
 10
64.857597
 20
-7.542066999999999
 30
0.0
 11
64.674995
 21
-7.450240999999999
 31
0.0
  0
LINE
  5
849
330
1F
100
AcDbEntity
  8
1
  6
CONTINUOUS
370
50
 62
4
100
AcDbLine
 10
94.66444399999999
 20
-10.140628
 30
0.0
 11
94.19294
 21
-9.905907
 31
0.0
  0
LINE
  5
84A
330
1F
100
AcDbEntity
  8
1
  6
CONTINUOUS
370
50
 62
4
100
AcDbLine
 10
65.669006
 20
11.835122
 30
0.0
 11
65.520119
 21
11.909139
 31
0.0
  0
LINE
  5
84B
330
1F
100
AcDbEntity
  8
1
  6
CONTINUOUS
370
50
 62
4
100
AcDbLine
 10
91.79128999999999
 20
-10.201931
 30
0.0
 11
91.20805399999999
 21
-9.916979
 31
0.0
  0
LINE
  5
84C
330
1F
100
AcDbEntity
  8
1
  6
CONTINUOUS
370
50
 62
4
100
AcDbLine
 10
64.438332
 20
4.449619999999999
 30
0.0
 11
63.902454
 21
4.707536999999999
 31
0.0
  0
LINE
  5
84D
330
1F
100
AcDbEntity
  8
1
  6
CONTINUOUS
370
50
 62
4
100
AcDbLine
 10
95.134956
 20
-10.366199
 30
0.0
 11
94.66444399999999
 21
-10.140628
 31
0.0
  0
LINE
  5
84E
330
1F
100
AcDbEntity
  8
1
  6
CONTINUOUS
370
50
 62
4
100
AcDbLine
 10
69.345322
 20
8.603608
 30
0.0
 11
68.79671499999999
 21
8.861927999999999
 31
0.0
  0
LINE
  5
84F
330
1F
100
AcDbEntity
  8
1
  6
CONTINUOUS
370
50
 62
4
100
AcDbLine
 10
92.375137
 20
-10.471698
 30
0.0
 11
91.79128999999999
 21
-10.201931
 31
0.0
  0
LINE
  5
850
330
1F
100
AcDbEntity
  8
1
  6
CONTINUOUS
370
50
 62
4
100
AcDbLine
 10
95.604118
 20
-10.582332
 30
0.0
 11
95.134956
 21
-10.366199
 31
0.0
  0
LINE
  5
851
330
1F
100
AcDbEntity
  8
1
  6
CONTINUOUS
370
50
 62
4
100
AcDbLine
 10
99.875298
 20
-10.029512
 30
0.0
 11
99.83208499999999
 21
-10.009711
 31
0.0
  0
LINE
  5
852
330
1F
100
AcDbEntity
  8
1
  6
CONTINUOUS
370
50
 62
4
100
AcDbLine
 10
74.004738
 20
-2.773698
 30
0.0
 11
74.00394399999999
 21
-2.77334
 31
0.0
  0
LINE
  5
853
330
1F
100
AcDbEntity
  8
1
  6
CONTINUOUS
370
50
 62
4
100
AcDbLine
 10
64.983162
 20
4.205897999999999
 30
0.0
 11
64.438332
 21
4.449619999999999
 31
0.0
  0
LINE
  5
854
330
1F
100
AcDbEntity
  8
1
  6
CONTINUOUS
370
50
 62
4
100
AcDbLine
 10
96.071587
 20
-10.788735
 30
0.0
 11
95.604118
 21
-10.582332
 31
0.0
  0
LINE
  5
855
330
1F
100
AcDbEntity
  8
1
  6
CONTINUOUS
370
50
 62
4
100
AcDbLine
 10
92.95871
 20
-10.725998
 30
0.0
 11
92.375137
 21
-10.471698
 31
0.0
  0
LINE
  5
856
330
1F
100
AcDbEntity
  8
1
  6
CONTINUOUS
370
50
 62
4
100
AcDbLine
 10
98.995392
 20
11.865987
 30
0.0
 11
98.80330699999999
 21
11.947434
 31
0.0
  0
LINE
  5
857
330
1F
100
AcDbEntity
  8
1
  6
CONTINUOUS
370
50
 62
4
100
AcDbLine
 10
96.53699499999999
 20
-10.985122
 30
0.0
 11
96.071587
 21
-10.788735
 31
0.0
  0
LINE
  5
858
330
1F
100
AcDbEntity
  8
1
  6
CONTINUOUS
370
50
 62
4
100
AcDbLine
 10
65.536423
 20
3.976709
 30
0.0
 11
64.983162
 21
4.205897999999999
 31
0.0
  0
LINE
  5
859
330
1F
100
AcDbEntity
  8
1
  6
CONTINUOUS
370
50
 62
4
100
AcDbLine
 10
97.79551699999999
 20
3.235865
 30
0.0
 11
96.950043
 21
3.585278
 31
0.0
  0
LINE
  5
85A
330
1F
100
AcDbEntity
  8
1
  6
CONTINUOUS
370
50
 62
4
100
AcDbLine
 10
98.69021599999999
 20
2.868243
 30
0.0
 11
97.79551699999999
 21
3.235865
 31
0.0
  0
LINE
  5
85B
330
1F
100
AcDbEntity
  8
1
  6
CONTINUOUS
370
50
 62
4
100
AcDbLine
 10
93.54111499999999
 20
-10.964547
 30
0.0
 11
92.95871
 21
-10.725998
 31
0.0
  0
LINE
  5
85C
330
1F
100
AcDbEntity
  8
1
  6
CONTINUOUS
370
50
 62
4
100
AcDbLine
 10
99.570381
 20
2.509974
 30
0.0
 11
98.69021599999999
 21
2.868243
 31
0.0
  0
LINE
  5
85D
330
1F
100
AcDbEntity
  8
1
  6
CONTINUOUS
370
50
 62
4
100
AcDbLine
 10
69.481529
 20
8.54839
 30
0.0
 11
69.345322
 21
8.603608
 31
0.0
  0
LINE
  5
85E
330
1F
100
AcDbEntity
  8
1
  6
CONTINUOUS
370
50
 62
4
100
AcDbLine
 10
97.0
 20
-11.1712
 30
0.0
 11
96.53699499999999
 21
-10.985122
 31
0.0
  0
LINE
  5
85F
330
1F
100
AcDbEntity
  8
1
  6
CONTINUOUS
370
50
 62
4
100
AcDbLine
 10
74.00394399999999
 20
-2.77334
 30
0.0
 11
74.003159
 21
-2.77303
 31
0.0
  0
LINE
  5
860
330
1F
100
AcDbEntity
  8
1
  6
CONTINUOUS
370
50
 62
4
100
AcDbLine
 10
74.002365
 20
-2.77272
 30
0.0
 11
74.00157899999999
 21
-2.77241
 31
0.0
  0
LINE
  5
861
330
1F
100
AcDbEntity
  8
1
  6
CONTINUOUS
370
50
 62
4
100
AcDbLine
 10
74.00157899999999
 20
-2.77241
 30
0.0
 11
74.00078599999999
 21
-2.7721
 31
0.0
  0
LINE
  5
862
330
1F
100
AcDbEntity
  8
1
  6
CONTINUOUS
370
50
 62
4
100
AcDbLine
 10
74.003159
 20
-2.77303
 30
0.0
 11
74.002365
 21
-2.77272
 31
0.0
  0
LINE
  5
863
330
1F
100
AcDbEntity
  8
1
  6
CONTINUOUS
370
50
 62
4
100
AcDbLine
 10
96.950043
 20
3.585278
 30
0.0
 11
96.05922699999999
 21
3.932112
 31
0.0
  0
LINE
  5
864
330
1F
100
AcDbEntity
  8
1
  6
CONTINUOUS
370
50
 62
4
100
AcDbLine
 10
74.662941
 20
-3.029704
 30
0.0
 11
74.004738
 21
-2.773698
 31
0.0
  0
LINE
  5
865
330
1F
100
AcDbEntity
  8
1
  6
CONTINUOUS
370
50
 62
4
100
AcDbLine
 10
99.91896799999999
 20
-10.046371
 30
0.0
 11
99.875298
 21
-10.029512
 31
0.0
  0
LINE
  5
866
330
1F
100
AcDbEntity
  8
1
  6
CONTINUOUS
370
50
 62
4
100
AcDbLine
 10
94.121849
 20
-11.187223
 30
0.0
 11
93.54111499999999
 21
-10.964547
 31
0.0
  0
LINE
  5
867
330
1F
100
AcDbEntity
  8
1
  6
CONTINUOUS
370
50
 62
4
100
AcDbLine
 10
75.32112099999999
 20
-3.28161
 30
0.0
 11
74.662941
 21
-3.029704
 31
0.0
  0
LINE
  5
868
330
1F
100
AcDbEntity
  8
1
  6
CONTINUOUS
370
50
 62
4
100
AcDbLine
 10
66.097572
 20
3.762389
 30
0.0
 11
65.536423
 21
3.976709
 31
0.0
  0
LINE
  5
869
330
1F
100
AcDbEntity
  8
1
  6
CONTINUOUS
370
50
 62
4
100
AcDbLine
 10
75.979286
 20
-3.529289
 30
0.0
 11
75.32112099999999
 21
-3.28161
 31
0.0
  0
LINE
  5
86A
330
1F
100
AcDbEntity
  8
1
  6
CONTINUOUS
370
50
 62
4
100
AcDbLine
 10
76.63745899999999
 20
-3.772653
 30
0.0
 11
75.979286
 21
-3.529289
 31
0.0
  0
LINE
  5
86B
330
1F
100
AcDbEntity
  8
1
  6
CONTINUOUS
370
50
 62
4
100
AcDbLine
 10
97.085342
 20
-11.202539
 30
0.0
 11
97.0
 21
-11.1712
 31
0.0
  0
LINE
  5
86C
330
1F
100
AcDbEntity
  8
1
  6
CONTINUOUS
370
50
 62
4
100
AcDbLine
 10
77.29567
 20
-4.011619
 30
0.0
 11
76.63745899999999
 21
-3.772653
 31
0.0
  0
LINE
  5
86D
330
1F
100
AcDbEntity
  8
1
  6
CONTINUOUS
370
50
 62
4
100
AcDbLine
 10
94.70157599999999
 20
-11.394242
 30
0.0
 11
94.121849
 21
-11.187223
 31
0.0
  0
LINE
  5
86E
330
1F
100
AcDbEntity
  8
1
  6
CONTINUOUS
370
50
 62
4
100
AcDbLine
 10
77.953926
 20
-4.246039
 30
0.0
 11
77.29567
 21
-4.011619
 31
0.0
  0
LINE
  5
86F
330
1F
100
AcDbEntity
  8
1
  6
CONTINUOUS
370
50
 62
4
100
AcDbLine
 10
96.05922699999999
 20
3.932112
 30
0.0
 11
95.121422
 21
4.26419
 31
0.0
  0
LINE
  5
870
330
1F
100
AcDbEntity
  8
1
  6
CONTINUOUS
370
50
 62
4
100
AcDbLine
 10
66.666084
 20
3.563275
 30
0.0
 11
66.097572
 21
3.762389
 31
0.0
  0
LINE
  5
871
330
1F
100
AcDbEntity
  8
1
  6
CONTINUOUS
370
50
 62
4
100
AcDbLine
 10
69.980728
 20
8.374487
 30
0.0
 11
69.481529
 21
8.54839
 31
0.0
  0
LINE
  5
872
330
1F
100
AcDbEntity
  8
1
  6
CONTINUOUS
370
50
 62
4
100
AcDbLine
 10
98.80330699999999
 20
11.947434
 30
0.0
 11
98.60833
 21
12.014454
 31
0.0
  0
LINE
  5
873
330
1F
100
AcDbEntity
  8
1
  6
CONTINUOUS
370
50
 62
4
100
AcDbLine
 10
78.612236
 20
-4.470898
 30
0.0
 11
77.953926
 21
-4.246039
 31
0.0
  0
LINE
  5
874
330
1F
100
AcDbEntity
  8
1
  6
CONTINUOUS
370
50
 62
4
100
AcDbLine
 10
95.235832
 20
6.28243
 30
0.0
 11
95.161987
 21
6.30688
 31
0.0
  0
LINE
  5
875
330
1F
100
AcDbEntity
  8
1
  6
CONTINUOUS
370
50
 62
4
100
AcDbLine
 10
74.00078599999999
 20
-2.7721
 30
0.0
 11
74.0
 21
-2.77184
 31
0.0
  0
LINE
  5
876
330
1F
100
AcDbEntity
  8
1
  6
CONTINUOUS
370
50
 62
4
100
AcDbLine
 10
95.279839
 20
-11.585178
 30
0.0
 11
94.70157599999999
 21
-11.394242
 31
0.0
  0
LINE
  5
877
330
1F
100
AcDbEntity
  8
1
  6
CONTINUOUS
370
50
 62
4
100
AcDbLine
 10
95.121422
 20
4.26419
 30
0.0
 11
94.17598699999999
 21
4.570386
 31
0.0
  0
LINE
  5
878
330
1F
100
AcDbEntity
  8
1
  6
CONTINUOUS
370
50
 62
4
100
AcDbLine
 10
79.27059899999999
 20
-4.683314
 30
0.0
 11
78.612236
 21
-4.470898
 31
0.0
  0
LINE
  5
879
330
1F
100
AcDbEntity
  8
1
  6
CONTINUOUS
370
50
 62
4
100
AcDbLine
 10
67.24144
 20
3.379703
 30
0.0
 11
66.666084
 21
3.563275
 31
0.0
  0
LINE
  5
87A
330
1F
100
AcDbEntity
  8
1
  6
CONTINUOUS
370
50
 62
4
100
AcDbLine
 10
97.173912
 20
-11.230686
 30
0.0
 11
97.085342
 21
-11.202539
 31
0.0
  0
LINE
  5
87B
330
1F
100
AcDbEntity
  8
1
  6
CONTINUOUS
370
50
 62
4
100
AcDbLine
 10
99.96296699999999
 20
-10.060083
 30
0.0
 11
99.91896799999999
 21
-10.046371
 31
0.0
  0
LINE
  5
87C
330
1F
100
AcDbEntity
  8
1
  6
CONTINUOUS
370
50
 62
4
100
AcDbLine
 10
79.928986
 20
-4.883662999999999
 30
0.0
 11
79.27059899999999
 21
-4.683314
 31
0.0
  0
LINE
  5
87D
330
1F
100
AcDbEntity
  8
1
  6
CONTINUOUS
370
50
 62
4
100
AcDbLine
 10
95.856049
 20
-11.759547
 30
0.0
 11
95.279839
 21
-11.585178
 31
0.0
  0
LINE
  5
87E
330
1F
100
AcDbEntity
  8
1
  6
CONTINUOUS
370
50
 62
4
100
AcDbLine
 10
94.17598699999999
 20
4.570386
 30
0.0
 11
93.234344
 21
4.851156
 31
0.0
  0
LINE
  5
87F
330
1F
100
AcDbEntity
  8
1
  6
CONTINUOUS
370
50
 62
4
100
AcDbLine
 10
65.520119
 20
11.909139
 30
0.0
 11
65.345787
 21
11.960527
 31
0.0
  0
LINE
  5
880
330
1F
100
AcDbEntity
  8
1
  6
CONTINUOUS
370
50
 62
4
100
AcDbLine
 10
95.308617
 20
6.261175
 30
0.0
 11
95.235832
 21
6.28243
 31
0.0
  0
LINE
  5
881
330
1F
100
AcDbEntity
  8
1
  6
CONTINUOUS
370
50
 62
4
100
AcDbLine
 10
80.587372
 20
-5.072319999999999
 30
0.0
 11
79.928986
 21
-4.883662999999999
 31
0.0
  0
LINE
  5
882
330
1F
100
AcDbEntity
  8
1
  6
CONTINUOUS
370
50
 62
4
100
AcDbLine
 10
74.0
 20
-8.426086999999999
 30
0.0
 11
73.42392
 21
-8.263838999999999
 31
0.0
  0
LINE
  5
883
330
1F
100
AcDbEntity
  8
1
  6
CONTINUOUS
370
50
 62
4
100
AcDbLine
 10
93.234344
 20
4.851156
 30
0.0
 11
92.307915
 21
5.106951
 31
0.0
  0
LINE
  5
884
330
1F
100
AcDbEntity
  8
1
  6
CONTINUOUS
370
50
 62
4
100
AcDbLine
 10
96.429634
 20
-11.916864
 30
0.0
 11
95.856049
 21
-11.759547
 31
0.0
  0
LINE
  5
885
330
1F
100
AcDbEntity
  8
1
  6
CONTINUOUS
370
50
 62
4
100
AcDbLine
 10
81.24575
 20
-5.24966
 30
0.0
 11
80.587372
 21
-5.072319999999999
 31
0.0
  0
LINE
  5
886
330
1F
100
AcDbEntity
  8
1
  6
CONTINUOUS
370
50
 62
4
100
AcDbLine
 10
98.60833
 20
12.014454
 30
0.0
 11
98.411034
 21
12.067232
 31
0.0
  0
LINE
  5
887
330
1F
100
AcDbEntity
  8
1
  6
CONTINUOUS
370
50
 62
4
100
AcDbLine
 10
97.265091
 20
-11.254964
 30
0.0
 11
97.173912
 21
-11.230686
 31
0.0
  0
LINE
  5
888
330
1F
100
AcDbEntity
  8
1
  6
CONTINUOUS
370
50
 62
4
100
AcDbLine
 10
70.487099
 20
8.241616
 30
0.0
 11
69.980728
 21
8.374487
 31
0.0
  0
LINE
  5
889
330
1F
100
AcDbEntity
  8
1
  6
CONTINUOUS
370
50
 62
4
100
AcDbLine
 10
92.307915
 20
5.106951
 30
0.0
 11
91.408127
 21
5.338225
 31
0.0
  0
LINE
  5
88A
330
1F
100
AcDbEntity
  8
1
  6
CONTINUOUS
370
50
 62
4
100
AcDbLine
 10
81.904091
 20
-5.416045
 30
0.0
 11
81.24575
 21
-5.24966
 31
0.0
  0
LINE
  5
88B
330
1F
100
AcDbEntity
  8
1
  6
CONTINUOUS
370
50
 62
4
100
AcDbLine
 10
95.380287
 20
6.243174
 30
0.0
 11
95.308617
 21
6.261175
 31
0.0
  0
LINE
  5
88C
330
1F
100
AcDbEntity
  8
1
  6
CONTINUOUS
370
50
 62
4
100
AcDbLine
 10
74.00209
 20
8.41222
 30
0.0
 11
74.001556
 21
8.412353999999999
 31
0.0
  0
LINE
  5
88D
330
1F
100
AcDbEntity
  8
1
  6
CONTINUOUS
370
50
 62
4
100
AcDbLine
 10
74.000481
 20
8.41262
 30
0.0
 11
73.99994699999999
 21
8.412753
 31
0.0
  0
LINE
  5
88E
330
1F
100
AcDbEntity
  8
1
  6
CONTINUOUS
370
50
 62
4
100
AcDbLine
 10
74.00102199999999
 20
8.412486
 30
0.0
 11
74.000481
 21
8.41262
 31
0.0
  0
LINE
  5
88F
330
1F
100
AcDbEntity
  8
1
  6
CONTINUOUS
370
50
 62
4
100
AcDbLine
 10
74.00263199999999
 20
8.412086
 30
0.0
 11
74.00209
 21
8.41222
 31
0.0
  0
LINE
  5
890
330
1F
100
AcDbEntity
  8
1
  6
CONTINUOUS
370
50
 62
4
100
AcDbLine
 10
74.003166
 20
8.411954
 30
0.0
 11
74.00263199999999
 21
8.412086
 31
0.0
  0
LINE
  5
891
330
1F
100
AcDbEntity
  8
1
  6
CONTINUOUS
370
50
 62
4
100
AcDbLine
 10
74.001556
 20
8.412353999999999
 30
0.0
 11
74.00102199999999
 21
8.412486
 31
0.0
  0
LINE
  5
892
330
1F
100
AcDbEntity
  8
1
  6
CONTINUOUS
370
50
 62
4
100
AcDbLine
 10
74.249168
 20
8.351211
 30
0.0
 11
74.002617
 21
8.412089
 31
0.0
  0
LINE
  5
893
330
1F
100
AcDbEntity
  8
1
  6
CONTINUOUS
370
50
 62
4
100
AcDbLine
 10
97.0
 20
-12.056646
 30
0.0
 11
96.429634
 21
-11.916864
 31
0.0
  0
LINE
  5
894
330
1F
100
AcDbEntity
  8
1
  6
CONTINUOUS
370
50
 62
4
100
AcDbLine
 10
74.495728
 20
8.290846
 30
0.0
 11
74.249168
 21
8.351211
 31
0.0
  0
LINE
  5
895
330
1F
100
AcDbEntity
  8
1
  6
CONTINUOUS
370
50
 62
4
100
AcDbLine
 10
74.74228699999999
 20
8.230989
 30
0.0
 11
74.495728
 21
8.290846
 31
0.0
  0
LINE
  5
896
330
1F
100
AcDbEntity
  8
1
  6
CONTINUOUS
370
50
 62
4
100
AcDbLine
 10
74.98885299999999
 20
8.171637
 30
0.0
 11
74.74228699999999
 21
8.230989
 31
0.0
  0
LINE
  5
897
330
1F
100
AcDbEntity
  8
1
  6
CONTINUOUS
370
50
 62
4
100
AcDbLine
 10
91.408127
 20
5.338225
 30
0.0
 11
90.54641
 21
5.545433
 31
0.0
  0
LINE
  5
898
330
1F
100
AcDbEntity
  8
1
  6
CONTINUOUS
370
50
 62
4
100
AcDbLine
 10
75.23541999999999
 20
8.112786999999999
 30
0.0
 11
74.98885299999999
 21
8.171637
 31
0.0
  0
LINE
  5
899
330
1F
100
AcDbEntity
  8
1
  6
CONTINUOUS
370
50
 62
4
100
AcDbLine
 10
67.584091
 20
3.297944
 30
0.0
 11
67.24144
 21
3.379703
 31
0.0
  0
LINE
  5
89A
330
1F
100
AcDbEntity
  8
1
  6
CONTINUOUS
370
50
 62
4
100
AcDbLine
 10
75.48198699999999
 20
8.054435999999999
 30
0.0
 11
75.23541999999999
 21
8.112786999999999
 31
0.0
  0
LINE
  5
89B
330
1F
100
AcDbEntity
  8
1
  6
CONTINUOUS
370
50
 62
4
100
AcDbLine
 10
82.562393
 20
-5.571683
 30
0.0
 11
81.904091
 21
-5.416045
 31
0.0
  0
LINE
  5
89C
330
1F
100
AcDbEntity
  8
1
  6
CONTINUOUS
370
50
 62
4
100
AcDbLine
 10
75.728554
 20
7.996582
 30
0.0
 11
75.48198699999999
 21
8.054435999999999
 31
0.0
  0
LINE
  5
89D
330
1F
100
AcDbEntity
  8
1
  6
CONTINUOUS
370
50
 62
4
100
AcDbLine
 10
100.007187
 20
-10.070439
 30
0.0
 11
99.96296699999999
 21
-10.060083
 31
0.0
  0
LINE
  5
89E
330
1F
100
AcDbEntity
  8
1
  6
CONTINUOUS
370
50
 62
4
100
AcDbLine
 10
75.975121
 20
7.939226
 30
0.0
 11
75.728554
 21
7.996582
 31
0.0
  0
LINE
  5
89F
330
1F
100
AcDbEntity
  8
1
  6
CONTINUOUS
370
50
 62
4
100
AcDbLine
 10
76.14671299999999
 20
7.899604999999999
 30
0.0
 11
75.975121
 21
7.939226
 31
0.0
  0
LINE
  5
8A0
330
1F
100
AcDbEntity
  8
1
  6
CONTINUOUS
370
50
 62
4
100
AcDbLine
 10
76.40231299999999
 20
7.841034
 30
0.0
 11
76.14671299999999
 21
7.899604999999999
 31
0.0
  0
LINE
  5
8A1
330
1F
100
AcDbEntity
  8
1
  6
CONTINUOUS
370
50
 62
4
100
AcDbLine
 10
76.657913
 20
7.783007
 30
0.0
 11
76.40231299999999
 21
7.841034
 31
0.0
  0
LINE
  5
8A2
330
1F
100
AcDbEntity
  8
1
  6
CONTINUOUS
370
50
 62
4
100
AcDbLine
 10
90.54641
 20
5.545433
 30
0.0
 11
89.723152
 21
5.731277
 31
0.0
  0
LINE
  5
8A3
330
1F
100
AcDbEntity
  8
1
  6
CONTINUOUS
370
50
 62
4
100
AcDbLine
 10
76.91349799999999
 20
7.72553
 30
0.0
 11
76.657913
 21
7.783007
 31
0.0
  0
LINE
  5
8A4
330
1F
100
AcDbEntity
  8
1
  6
CONTINUOUS
370
50
 62
4
100
AcDbLine
 10
77.169067
 20
7.668610999999999
 30
0.0
 11
76.91349799999999
 21
7.72553
 31
0.0
  0
LINE
  5
8A5
330
1F
100
AcDbEntity
  8
1
  6
CONTINUOUS
370
50
 62
4
100
AcDbLine
 10
77.424622
 20
7.612260999999999
 30
0.0
 11
77.169067
 21
7.668610999999999
 31
0.0
  0
LINE
  5
8A6
330
1F
100
AcDbEntity
  8
1
  6
CONTINUOUS
370
50
 62
4
100
AcDbLine
 10
83.220657
 20
-5.716669
 30
0.0
 11
82.562393
 21
-5.571683
 31
0.0
  0
LINE
  5
8A7
330
1F
100
AcDbEntity
  8
1
  6
CONTINUOUS
370
50
 62
4
100
AcDbLine
 10
74.003151
 20
-5.63098
 30
0.0
 11
74.002365
 21
-5.630808
 31
0.0
  0
LINE
  5
8A8
330
1F
100
AcDbEntity
  8
1
  6
CONTINUOUS
370
50
 62
4
100
AcDbLine
 10
74.00078599999999
 20
-5.630465999999999
 30
0.0
 11
74.0
 21
-5.630294
 31
0.0
  0
LINE
  5
8A9
330
1F
100
AcDbEntity
  8
1
  6
CONTINUOUS
370
50
 62
4
100
AcDbLine
 10
77.68015299999999
 20
7.556489999999999
 30
0.0
 11
77.424622
 21
7.612260999999999
 31
0.0
  0
LINE
  5
8AA
330
1F
100
AcDbEntity
  8
1
  6
CONTINUOUS
370
50
 62
4
100
AcDbLine
 10
74.004723
 20
-5.631322
 30
0.0
 11
74.003151
 21
-5.63098
 31
0.0
  0
LINE
  5
8AB
330
1F
100
AcDbEntity
  8
1
  6
CONTINUOUS
370
50
 62
4
100
AcDbLine
 10
74.001572
 20
-5.630637
 30
0.0
 11
74.00078599999999
 21
-5.630465999999999
 31
0.0
  0
LINE
  5
8AC
330
1F
100
AcDbEntity
  8
1
  6
CONTINUOUS
370
50
 62
4
100
AcDbLine
 10
77.935661
 20
7.501338
 30
0.0
 11
77.68015299999999
 21
7.556489999999999
 31
0.0
  0
LINE
  5
8AD
330
1F
100
AcDbEntity
  8
1
  6
CONTINUOUS
370
50
 62
4
100
AcDbLine
 10
74.002365
 20
-5.630808
 30
0.0
 11
74.001572
 21
-5.630637
 31
0.0
  0
LINE
  5
8AE
330
1F
100
AcDbEntity
  8
1
  6
CONTINUOUS
370
50
 62
4
100
AcDbLine
 10
97.358971
 20
-11.275002
 30
0.0
 11
97.265091
 21
-11.254964
 31
0.0
  0
LINE
  5
8AF
330
1F
100
AcDbEntity
  8
1
  6
CONTINUOUS
370
50
 62
4
100
AcDbLine
 10
78.191147
 20
7.447361
 30
0.0
 11
77.935661
 21
7.501338
 31
0.0
  0
LINE
  5
8B0
330
1F
100
AcDbEntity
  8
1
  6
CONTINUOUS
370
50
 62
4
100
AcDbLine
 10
89.723152
 20
5.731277
 30
0.0
 11
88.906128
 21
5.903377
 31
0.0
  0
LINE
  5
8B1
330
1F
100
AcDbEntity
  8
1
  6
CONTINUOUS
370
50
 62
4
100
AcDbLine
 10
74.79330399999999
 20
-5.796975
 30
0.0
 11
74.004723
 21
-5.631322
 31
0.0
  0
LINE
  5
8B2
330
1F
100
AcDbEntity
  8
1
  6
CONTINUOUS
370
50
 62
4
100
AcDbLine
 10
95.450775
 20
6.228486999999999
 30
0.0
 11
95.380287
 21
6.243174
 31
0.0
  0
LINE
  5
8B3
330
1F
100
AcDbEntity
  8
1
  6
CONTINUOUS
370
50
 62
4
100
AcDbLine
 10
78.29259499999999
 20
7.426317
 30
0.0
 11
78.191147
 21
7.447361
 31
0.0
  0
LINE
  5
8B4
330
1F
100
AcDbEntity
  8
1
  6
CONTINUOUS
370
50
 62
4
100
AcDbLine
 10
83.878891
 20
-5.851099
 30
0.0
 11
83.220657
 21
-5.716669
 31
0.0
  0
LINE
  5
8B5
330
1F
100
AcDbEntity
  8
1
  6
CONTINUOUS
370
50
 62
4
100
AcDbLine
 10
78.55980699999999
 20
7.371932999999999
 30
0.0
 11
78.29259499999999
 21
7.426317
 31
0.0
  0
LINE
  5
8B6
330
1F
100
AcDbEntity
  8
1
  6
CONTINUOUS
370
50
 62
4
100
AcDbLine
 10
97.20279699999999
 20
-12.09721
 30
0.0
 11
97.0
 21
-12.056646
 31
0.0
  0
LINE
  5
8B7
330
1F
100
AcDbEntity
  8
1
  6
CONTINUOUS
370
50
 62
4
100
AcDbLine
 10
78.827011
 20
7.319057
 30
0.0
 11
78.55980699999999
 21
7.371932999999999
 31
0.0
  0
LINE
  5
8B8
330
1F
100
AcDbEntity
  8
1
  6
CONTINUOUS
370
50
 62
4
100
AcDbLine
 10
75.587738
 20
-5.952153
 30
0.0
 11
74.79330399999999
 21
-5.796975
 31
0.0
  0
LINE
  5
8B9
330
1F
100
AcDbEntity
  8
1
  6
CONTINUOUS
370
50
 62
4
100
AcDbLine
 10
98.411034
 20
12.067232
 30
0.0
 11
98.211945
 21
12.10596
 31
0.0
  0
LINE
  5
8BA
330
1F
100
AcDbEntity
  8
1
  6
CONTINUOUS
370
50
 62
4
100
AcDbLine
 10
88.906128
 20
5.903377
 30
0.0
 11
88.096199
 21
6.060633999999999
 31
0.0
  0
LINE
  5
8BB
330
1F
100
AcDbEntity
  8
1
  6
CONTINUOUS
370
50
 62
4
100
AcDbLine
 10
79.09421499999999
 20
7.267666999999999
 30
0.0
 11
78.827011
 21
7.319057
 31
0.0
  0
LINE
  5
8BC
330
1F
100
AcDbEntity
  8
1
  6
CONTINUOUS
370
50
 62
4
100
AcDbLine
 10
67.930031
 20
3.231693
 30
0.0
 11
67.584091
 21
3.297944
 31
0.0
  0
LINE
  5
8BD
330
1F
100
AcDbEntity
  8
1
  6
CONTINUOUS
370
50
 62
4
100
AcDbLine
 10
73.42392
 20
-8.263838999999999
 30
0.0
 11
72.840904
 21
-8.153807
 31
0.0
  0
LINE
  5
8BE
330
1F
100
AcDbEntity
  8
1
  6
CONTINUOUS
370
50
 62
4
100
AcDbLine
 10
84.53710199999999
 20
-5.975066
 30
0.0
 11
83.878891
 21
-5.851099
 31
0.0
  0
LINE
  5
8BF
330
1F
100
AcDbEntity
  8
1
  6
CONTINUOUS
370
50
 62
4
100
AcDbLine
 10
79.361412
 20
7.217746
 30
0.0
 11
79.09421499999999
 21
7.267666999999999
 31
0.0
  0
LINE
  5
8C0
330
1F
100
AcDbEntity
  8
1
  6
CONTINUOUS
370
50
 62
4
100
AcDbLine
 10
79.628616
 20
7.169271999999999
 30
0.0
 11
79.361412
 21
7.217746
 31
0.0
  0
LINE
  5
8C1
330
1F
100
AcDbEntity
  8
1
  6
CONTINUOUS
370
50
 62
4
100
AcDbLine
 10
76.382179
 20
-6.095387
 30
0.0
 11
75.587738
 21
-5.952153
 31
0.0
  0
LINE
  5
8C2
330
1F
100
AcDbEntity
  8
1
  6
CONTINUOUS
370
50
 62
4
100
AcDbLine
 10
88.096199
 20
6.060633999999999
 30
0.0
 11
87.361435
 21
6.190185
 31
0.0
  0
LINE
  5
8C3
330
1F
100
AcDbEntity
  8
1
  6
CONTINUOUS
370
50
 62
4
100
AcDbLine
 10
79.89581299999999
 20
7.122226
 30
0.0
 11
79.628616
 21
7.169271999999999
 31
0.0
  0
LINE
  5
8C4
330
1F
100
AcDbEntity
  8
1
  6
CONTINUOUS
370
50
 62
4
100
AcDbLine
 10
71.072327
 20
8.139842999999999
 30
0.0
 11
70.487099
 21
8.241616
 31
0.0
  0
LINE
  5
8C5
330
1F
100
AcDbEntity
  8
1
  6
CONTINUOUS
370
50
 62
4
100
AcDbLine
 10
85.19529
 20
-6.088664
 30
0.0
 11
84.53710199999999
 21
-5.975066
 31
0.0
  0
LINE
  5
8C6
330
1F
100
AcDbEntity
  8
1
  6
CONTINUOUS
370
50
 62
4
100
AcDbLine
 10
80.163017
 20
7.076587
 30
0.0
 11
79.89581299999999
 21
7.122226
 31
0.0
  0
LINE
  5
8C7
330
1F
100
AcDbEntity
  8
1
  6
CONTINUOUS
370
50
 62
4
100
AcDbLine
 10
80.430229
 20
7.032337
 30
0.0
 11
80.163017
 21
7.076587
 31
0.0
  0
LINE
  5
8C8
330
1F
100
AcDbEntity
  8
1
  6
CONTINUOUS
370
50
 62
4
100
AcDbLine
 10
77.17076899999999
 20
-6.225212
 30
0.0
 11
76.382179
 21
-6.095387
 31
0.0
  0
LINE
  5
8C9
330
1F
100
AcDbEntity
  8
1
  6
CONTINUOUS
370
50
 62
4
100
AcDbLine
 10
95.520027
 20
6.217175
 30
0.0
 11
95.450775
 21
6.228486999999999
 31
0.0
  0
LINE
  5
8CA
330
1F
100
AcDbEntity
  8
1
  6
CONTINUOUS
370
50
 62
4
100
AcDbLine
 10
80.699272
 20
6.989166999999999
 30
0.0
 11
80.430229
 21
7.032337
 31
0.0
  0
LINE
  5
8CB
330
1F
100
AcDbEntity
  8
1
  6
CONTINUOUS
370
50
 62
4
100
AcDbLine
 10
97.45554399999999
 20
-11.290435
 30
0.0
 11
97.358971
 21
-11.275002
 31
0.0
  0
LINE
  5
8CC
330
1F
100
AcDbEntity
  8
1
  6
CONTINUOUS
370
50
 62
4
100
AcDbLine
 10
80.968323
 20
6.947366
 30
0.0
 11
80.699272
 21
6.989166999999999
 31
0.0
  0
LINE
  5
8CD
330
1F
100
AcDbEntity
  8
1
  6
CONTINUOUS
370
50
 62
4
100
AcDbLine
 10
100.051498
 20
-10.077233
 30
0.0
 11
100.007187
 21
-10.070439
 31
0.0
  0
LINE
  5
8CE
330
1F
100
AcDbEntity
  8
1
  6
CONTINUOUS
370
50
 62
4
100
AcDbLine
 10
81.237381
 20
6.906915
 30
0.0
 11
80.968323
 21
6.947366
 31
0.0
  0
LINE
  5
8CF
330
1F
100
AcDbEntity
  8
1
  6
CONTINUOUS
370
50
 62
4
100
AcDbLine
 10
65.345787
 20
11.960527
 30
0.0
 11
65.146446
 21
11.990435
 31
0.0
  0
LINE
  5
8D0
330
1F
100
AcDbEntity
  8
1
  6
CONTINUOUS
370
50
 62
4
100
AcDbLine
 10
87.361435
 20
6.190185
 30
0.0
 11
86.603516
 21
6.303258
 31
0.0
  0
LINE
  5
8D1
330
1F
100
AcDbEntity
  8
1
  6
CONTINUOUS
370
50
 62
4
100
AcDbLine
 10
77.927078
 20
-6.337232999999999
 30
0.0
 11
77.17076899999999
 21
-6.225212
 31
0.0
  0
LINE
  5
8D2
330
1F
100
AcDbEntity
  8
1
  6
CONTINUOUS
370
50
 62
4
100
AcDbLine
 10
81.506447
 20
6.867798
 30
0.0
 11
81.237381
 21
6.906915
 31
0.0
  0
LINE
  5
8D3
330
1F
100
AcDbEntity
  8
1
  6
CONTINUOUS
370
50
 62
4
100
AcDbLine
 10
68.278717
 20
3.181201
 30
0.0
 11
67.930031
 21
3.231693
 31
0.0
  0
LINE
  5
8D4
330
1F
100
AcDbEntity
  8
1
  6
CONTINUOUS
370
50
 62
4
100
AcDbLine
 10
81.775536
 20
6.829996
 30
0.0
 11
81.506447
 21
6.867798
 31
0.0
  0
LINE
  5
8D5
330
1F
100
AcDbEntity
  8
1
  6
CONTINUOUS
370
50
 62
4
100
AcDbLine
 10
97.405388
 20
-12.125144
 30
0.0
 11
97.20279699999999
 21
-12.09721
 31
0.0
  0
LINE
  5
8D6
330
1F
100
AcDbEntity
  8
1
  6
CONTINUOUS
370
50
 62
4
100
AcDbLine
 10
82.044624
 20
6.793495999999999
 30
0.0
 11
81.775536
 21
6.829996
 31
0.0
  0
LINE
  5
8D7
330
1F
100
AcDbEntity
  8
1
  6
CONTINUOUS
370
50
 62
4
100
AcDbLine
 10
82.313728
 20
6.758283
 30
0.0
 11
82.044624
 21
6.793495999999999
 31
0.0
  0
LINE
  5
8D8
330
1F
100
AcDbEntity
  8
1
  6
CONTINUOUS
370
50
 62
4
100
AcDbLine
 10
82.58283999999999
 20
6.724343999999999
 30
0.0
 11
82.313728
 21
6.758283
 31
0.0
  0
LINE
  5
8D9
330
1F
100
AcDbEntity
  8
1
  6
CONTINUOUS
370
50
 62
4
100
AcDbLine
 10
98.211945
 20
12.10596
 30
0.0
 11
98.011482
 21
12.130872
 31
0.0
  0
LINE
  5
8DA
330
1F
100
AcDbEntity
  8
1
  6
CONTINUOUS
370
50
 62
4
100
AcDbLine
 10
82.72377
 20
6.707076
 30
0.0
 11
82.58283999999999
 21
6.724343999999999
 31
0.0
  0
LINE
  5
8DB
330
1F
100
AcDbEntity
  8
1
  6
CONTINUOUS
370
50
 62
4
100
AcDbLine
 10
78.710793
 20
-6.432248
 30
0.0
 11
77.927078
 21
-6.337232999999999
 31
0.0
  0
LINE
  5
8DC
330
1F
100
AcDbEntity
  8
1
  6
CONTINUOUS
370
50
 62
4
100
AcDbLine
 10
86.603516
 20
6.303258
 30
0.0
 11
85.813499
 21
6.39861
 31
0.0
  0
LINE
  5
8DD
330
1F
100
AcDbEntity
  8
1
  6
CONTINUOUS
370
50
 62
4
100
AcDbLine
 10
82.97435
 20
6.677223
 30
0.0
 11
82.72377
 21
6.707076
 31
0.0
  0
LINE
  5
8DE
330
1F
100
AcDbEntity
  8
1
  6
CONTINUOUS
370
50
 62
4
100
AcDbLine
 10
95.587975
 20
6.209296999999999
 30
0.0
 11
95.520027
 21
6.217175
 31
0.0
  0
LINE
  5
8DF
330
1F
100
AcDbEntity
  8
1
  6
CONTINUOUS
370
50
 62
4
100
AcDbLine
 10
83.22494499999999
 20
6.648454999999999
 30
0.0
 11
82.97435
 21
6.677223
 31
0.0
  0
LINE
  5
8E0
330
1F
100
AcDbEntity
  8
1
  6
CONTINUOUS
370
50
 62
4
100
AcDbLine
 10
95.161987
 20
6.30688
 30
0.0
 11
94.467522
 21
6.38584
 31
0.0
  0
LINE
  5
8E1
330
1F
100
AcDbEntity
  8
1
  6
CONTINUOUS
370
50
 62
4
100
AcDbLine
 10
72.840904
 20
-8.153807
 30
0.0
 11
72.454636
 21
-8.109983
 31
0.0
  0
LINE
  5
8E2
330
1F
100
AcDbEntity
  8
1
  6
CONTINUOUS
370
50
 62
4
100
AcDbLine
 10
83.47554
 20
6.620762
 30
0.0
 11
83.22494499999999
 21
6.648454999999999
 31
0.0
  0
LINE
  5
8E3
330
1F
100
AcDbEntity
  8
1
  6
CONTINUOUS
370
50
 62
4
100
AcDbLine
 10
83.726143
 20
6.594143
 30
0.0
 11
83.47554
 21
6.620762
 31
0.0
  0
LINE
  5
8E4
330
1F
100
AcDbEntity
  8
1
  6
CONTINUOUS
370
50
 62
4
100
AcDbLine
 10
97.55454999999999
 20
-11.300853
 30
0.0
 11
97.45554399999999
 21
-11.290435
 31
0.0
  0
LINE
  5
8E5
330
1F
100
AcDbEntity
  8
1
  6
CONTINUOUS
370
50
 62
4
100
AcDbLine
 10
83.97674599999999
 20
6.568593
 30
0.0
 11
83.726143
 21
6.594143
 31
0.0
  0
LINE
  5
8E6
330
1F
100
AcDbEntity
  8
1
  6
CONTINUOUS
370
50
 62
4
100
AcDbLine
 10
68.629601
 20
3.146721
 30
0.0
 11
68.278717
 21
3.181201
 31
0.0
  0
LINE
  5
8E7
330
1F
100
AcDbEntity
  8
1
  6
CONTINUOUS
370
50
 62
4
100
AcDbLine
 10
84.227356
 20
6.54411
 30
0.0
 11
83.97674599999999
 21
6.568593
 31
0.0
  0
LINE
  5
8E8
330
1F
100
AcDbEntity
  8
1
  6
CONTINUOUS
370
50
 62
4
100
AcDbLine
 10
85.813499
 20
6.39861
 30
0.0
 11
85.01604499999999
 21
6.473945
 31
0.0
  0
LINE
  5
8E9
330
1F
100
AcDbEntity
  8
1
  6
CONTINUOUS
370
50
 62
4
100
AcDbLine
 10
6.319999999999999
 20
11.99995
 30
0.0
 11
1.0
 21
12.49995
 31
0.0
  0
LINE
  5
8EA
330
1F
100
AcDbEntity
  8
1
  6
CONTINUOUS
370
50
 62
4
100
AcDbLine
 10
94.467522
 20
6.38584
 30
0.0
 11
93.773026
 21
6.450803
 31
0.0
  0
LINE
  5
8EB
330
1F
100
AcDbEntity
  8
1
  6
CONTINUOUS
370
50
 62
4
100
AcDbLine
 10
84.477974
 20
6.520693
 30
0.0
 11
84.227356
 21
6.54411
 31
0.0
  0
LINE
  5
8EC
330
1F
100
AcDbEntity
  8
1
  6
CONTINUOUS
370
50
 62
4
100
AcDbLine
 10
79.554756
 20
-6.507885
 30
0.0
 11
78.710793
 21
-6.432248
 31
0.0
  0
LINE
  5
8ED
330
1F
100
AcDbEntity
  8
1
  6
CONTINUOUS
370
50
 62
4
100
AcDbLine
 10
84.72859199999999
 20
6.498343999999999
 30
0.0
 11
84.477974
 21
6.520693
 31
0.0
  0
LINE
  5
8EE
330
1F
100
AcDbEntity
  8
1
  6
CONTINUOUS
370
50
 62
4
100
AcDbLine
 10
85.01593
 20
6.474037
 30
0.0
 11
84.72859199999999
 21
6.498343999999999
 31
0.0
  0
LINE
  5
8EF
330
1F
100
AcDbEntity
  8
1
  6
CONTINUOUS
370
50
 62
4
100
AcDbLine
 10
71.661339
 20
8.091415
 30
0.0
 11
71.072327
 21
8.139842999999999
 31
0.0
  0
LINE
  5
8F0
330
1F
100
AcDbEntity
  8
1
  6
CONTINUOUS
370
50
 62
4
100
AcDbLine
 10
100.256096
 20
5.22558
 30
0.0
 11
99.271912
 21
5.304088
 31
0.0
  0
LINE
  5
8F1
330
1F
100
AcDbEntity
  8
1
  6
CONTINUOUS
370
50
 62
4
100
AcDbLine
 10
99.271912
 20
5.304088
 30
0.0
 11
98.286751
 21
5.380027
 31
0.0
  0
LINE
  5
8F2
330
1F
100
AcDbEntity
  8
1
  6
CONTINUOUS
370
50
 62
4
100
AcDbLine
 10
97.60788699999999
 20
-12.140223
 30
0.0
 11
97.405388
 21
-12.125144
 31
0.0
  0
LINE
  5
8F3
330
1F
100
AcDbEntity
  8
1
  6
CONTINUOUS
370
50
 62
4
100
AcDbLine
 10
98.286751
 20
5.380027
 30
0.0
 11
97.30130799999999
 21
5.453094
 31
0.0
  0
LINE
  5
8F4
330
1F
100
AcDbEntity
  8
1
  6
CONTINUOUS
370
50
 62
4
100
AcDbLine
 10
93.773026
 20
6.450803
 30
0.0
 11
93.07850599999999
 21
6.501932
 31
0.0
  0
LINE
  5
8F5
330
1F
100
AcDbEntity
  8
1
  6
CONTINUOUS
370
50
 62
4
100
AcDbLine
 10
97.30130799999999
 20
5.453094
 30
0.0
 11
96.566544
 21
5.505891999999999
 31
0.0
  0
LINE
  5
8F6
330
1F
100
AcDbEntity
  8
1
  6
CONTINUOUS
370
50
 62
4
100
AcDbLine
 10
96.566544
 20
5.505891999999999
 30
0.0
 11
95.886887
 21
5.554152999999999
 31
0.0
  0
LINE
  5
8F7
330
1F
100
AcDbEntity
  8
1
  6
CONTINUOUS
370
50
 62
4
100
AcDbLine
 10
95.886887
 20
5.554152999999999
 30
0.0
 11
95.200851
 21
5.602295
 31
0.0
  0
LINE
  5
8F8
330
1F
100
AcDbEntity
  8
1
  6
CONTINUOUS
370
50
 62
4
100
AcDbLine
 10
100.095779
 20
-10.080337
 30
0.0
 11
100.051498
 21
-10.077233
 31
0.0
  0
LINE
  5
8F9
330
1F
100
AcDbEntity
  8
1
  6
CONTINUOUS
370
50
 62
4
100
AcDbLine
 10
95.200851
 20
5.602295
 30
0.0
 11
94.51293199999999
 21
5.649941999999999
 31
0.0
  0
LINE
  5
8FA
330
1F
100
AcDbEntity
  8
1
  6
CONTINUOUS
370
50
 62
4
100
AcDbLine
 10
80.403534
 20
-6.558884
 30
0.0
 11
79.554756
 21
-6.507885
 31
0.0
  0
LINE
  5
8FB
330
1F
100
AcDbEntity
  8
1
  6
CONTINUOUS
370
50
 62
4
100
AcDbLine
 10
98.011482
 20
12.130872
 30
0.0
 11
97.81002
 21
12.142212
 31
0.0
  0
LINE
  5
8FC
330
1F
100
AcDbEntity
  8
1
  6
CONTINUOUS
370
50
 62
4
100
AcDbLine
 10
93.07850599999999
 20
6.501932
 30
0.0
 11
92.38394199999999
 21
6.53937
 31
0.0
  0
LINE
  5
8FD
330
1F
100
AcDbEntity
  8
1
  6
CONTINUOUS
370
50
 62
4
100
AcDbLine
 10
72.454636
 20
-8.109983
 30
0.0
 11
72.058189
 21
-8.08873
 31
0.0
  0
LINE
  5
8FE
330
1F
100
AcDbEntity
  8
1
  6
CONTINUOUS
370
50
 62
4
100
AcDbLine
 10
68.982109
 20
3.128515
 30
0.0
 11
68.629601
 21
3.146721
 31
0.0
  0
LINE
  5
8FF
330
1F
100
AcDbEntity
  8
1
  6
CONTINUOUS
370
50
 62
4
100
AcDbLine
 10
97.65550999999999
 20
-11.305879
 30
0.0
 11
97.55454999999999
 21
-11.300853
 31
0.0
  0
LINE
  5
900
330
1F
100
AcDbEntity
  8
1
  6
CONTINUOUS
370
50
 62
4
100
AcDbLine
 10
65.146446
 20
11.990435
 30
0.0
 11
64.922523
 21
12.000009
 31
0.0
  0
LINE
  5
901
330
1F
100
AcDbEntity
  8
1
  6
CONTINUOUS
370
50
 62
4
100
AcDbLine
 10
92.38394199999999
 20
6.53937
 30
0.0
 11
91.689323
 21
6.563206
 31
0.0
  0
LINE
  5
902
330
1F
100
AcDbEntity
  8
1
  6
CONTINUOUS
370
50
 62
4
100
AcDbLine
 10
81.25383
 20
-6.587339999999999
 30
0.0
 11
80.403534
 21
-6.558884
 31
0.0
  0
LINE
  5
903
330
1F
100
AcDbEntity
  8
1
  6
CONTINUOUS
370
50
 62
4
100
AcDbLine
 10
95.740746
 20
6.204597
 30
0.0
 11
95.587975
 21
6.209296999999999
 31
0.0
  0
LINE
  5
904
330
1F
100
AcDbEntity
  8
1
  6
CONTINUOUS
370
50
 62
4
100
AcDbLine
 10
91.689323
 20
6.563206
 30
0.0
 11
90.99466699999999
 21
6.57325
 31
0.0
  0
LINE
  5
905
330
1F
100
AcDbEntity
  8
1
  6
CONTINUOUS
370
50
 62
4
100
AcDbLine
 10
97.81002
 20
-12.142212
 30
0.0
 11
97.60788699999999
 21
-12.140223
 31
0.0
  0
LINE
  5
906
330
1F
100
AcDbEntity
  8
1
  6
CONTINUOUS
370
50
 62
4
100
AcDbLine
 10
82.11245699999999
 20
-6.595109
 30
0.0
 11
81.25383
 21
-6.587339999999999
 31
0.0
  0
LINE
  5
907
330
1F
100
AcDbEntity
  8
1
  6
CONTINUOUS
370
50
 62
4
100
AcDbLine
 10
72.058189
 20
8.08873
 30
0.0
 11
71.661339
 21
8.091415
 31
0.0
  0
LINE
  5
908
330
1F
100
AcDbEntity
  8
1
  6
CONTINUOUS
370
50
 62
4
100
AcDbLine
 10
69.335289
 20
3.126852
 30
0.0
 11
68.982109
 21
3.128515
 31
0.0
  0
LINE
  5
909
330
1F
100
AcDbEntity
  8
1
  6
CONTINUOUS
370
50
 62
4
100
AcDbLine
 10
90.99466699999999
 20
6.573193
 30
0.0
 11
90.782623
 21
6.574116
 31
0.0
  0
LINE
  5
90A
330
1F
100
AcDbEntity
  8
1
  6
CONTINUOUS
370
50
 62
4
100
AcDbLine
 10
90.782623
 20
6.574116
 30
0.0
 11
90.570572
 21
6.575012999999999
 31
0.0
  0
LINE
  5
90B
330
1F
100
AcDbEntity
  8
1
  6
CONTINUOUS
370
50
 62
4
100
AcDbLine
 10
90.570572
 20
6.575012999999999
 30
0.0
 11
90.358513
 21
6.575882
 31
0.0
  0
LINE
  5
90C
330
1F
100
AcDbEntity
  8
1
  6
CONTINUOUS
370
50
 62
4
100
AcDbLine
 10
90.358513
 20
6.575882
 30
0.0
 11
90.14645399999999
 21
6.576718
 31
0.0
  0
LINE
  5
90D
330
1F
100
AcDbEntity
  8
1
  6
CONTINUOUS
370
50
 62
4
100
AcDbLine
 10
90.14645399999999
 20
6.576718
 30
0.0
 11
89.93440199999999
 21
6.577518
 31
0.0
  0
LINE
  5
90E
330
1F
100
AcDbEntity
  8
1
  6
CONTINUOUS
370
50
 62
4
100
AcDbLine
 10
89.93440199999999
 20
6.577518
 30
0.0
 11
89.722343
 21
6.578278999999999
 31
0.0
  0
LINE
  5
90F
330
1F
100
AcDbEntity
  8
1
  6
CONTINUOUS
370
50
 62
4
100
AcDbLine
 10
89.722343
 20
6.578278999999999
 30
0.0
 11
89.51029199999999
 21
6.578996
 31
0.0
  0
LINE
  5
910
330
1F
100
AcDbEntity
  8
1
  6
CONTINUOUS
370
50
 62
4
100
AcDbLine
 10
89.51029199999999
 20
6.578996
 30
0.0
 11
89.29699699999999
 21
6.579669
 31
0.0
  0
LINE
  5
911
330
1F
100
AcDbEntity
  8
1
  6
CONTINUOUS
370
50
 62
4
100
AcDbLine
 10
83.858841
 20
6.589906
 30
0.0
 11
83.659515
 21
6.590504999999999
 31
0.0
  0
LINE
  5
912
330
1F
100
AcDbEntity
  8
1
  6
CONTINUOUS
370
50
 62
4
100
AcDbLine
 10
84.05815899999999
 20
6.589315
 30
0.0
 11
83.858841
 21
6.589906
 31
0.0
  0
LINE
  5
913
330
1F
100
AcDbEntity
  8
1
  6
CONTINUOUS
370
50
 62
4
100
AcDbLine
 10
84.263947
 20
6.588718
 30
0.0
 11
84.05815899999999
 21
6.589315
 31
0.0
  0
LINE
  5
914
330
1F
100
AcDbEntity
  8
1
  6
CONTINUOUS
370
50
 62
4
100
AcDbLine
 10
89.29699699999999
 20
6.579669
 30
0.0
 11
89.003036
 21
6.580513
 31
0.0
  0
LINE
  5
915
330
1F
100
AcDbEntity
  8
1
  6
CONTINUOUS
370
50
 62
4
100
AcDbLine
 10
84.428635
 20
6.588249999999999
 30
0.0
 11
84.263947
 21
6.588718
 31
0.0
  0
LINE
  5
916
330
1F
100
AcDbEntity
  8
1
  6
CONTINUOUS
370
50
 62
4
100
AcDbLine
 10
84.583237
 20
6.587821
 30
0.0
 11
84.428635
 21
6.588249999999999
 31
0.0
  0
LINE
  5
917
330
1F
100
AcDbEntity
  8
1
  6
CONTINUOUS
370
50
 62
4
100
AcDbLine
 10
84.737839
 20
6.587403999999999
 30
0.0
 11
84.583237
 21
6.587821
 31
0.0
  0
LINE
  5
918
330
1F
100
AcDbEntity
  8
1
  6
CONTINUOUS
370
50
 62
4
100
AcDbLine
 10
84.89244099999999
 20
6.586997999999999
 30
0.0
 11
84.737839
 21
6.587403999999999
 31
0.0
  0
LINE
  5
919
330
1F
100
AcDbEntity
  8
1
  6
CONTINUOUS
370
50
 62
4
100
AcDbLine
 10
85.077919
 20
6.58653
 30
0.0
 11
84.89244099999999
 21
6.586997999999999
 31
0.0
  0
LINE
  5
91A
330
1F
100
AcDbEntity
  8
1
  6
CONTINUOUS
370
50
 62
4
100
AcDbLine
 10
89.003036
 20
6.580513
 30
0.0
 11
88.725983
 21
6.581207999999999
 31
0.0
  0
LINE
  5
91B
330
1F
100
AcDbEntity
  8
1
  6
CONTINUOUS
370
50
 62
4
100
AcDbLine
 10
85.28669
 20
6.586028
 30
0.0
 11
85.077919
 21
6.58653
 31
0.0
  0
LINE
  5
91C
330
1F
100
AcDbEntity
  8
1
  6
CONTINUOUS
370
50
 62
4
100
AcDbLine
 10
85.492035
 20
6.585563
 30
0.0
 11
85.28669
 21
6.586028
 31
0.0
  0
LINE
  5
91D
330
1F
100
AcDbEntity
  8
1
  6
CONTINUOUS
370
50
 62
4
100
AcDbLine
 10
88.725983
 20
6.581207999999999
 30
0.0
 11
88.52111099999999
 21
6.581656
 31
0.0
  0
LINE
  5
91E
330
1F
100
AcDbEntity
  8
1
  6
CONTINUOUS
370
50
 62
4
100
AcDbLine
 10
85.69738799999999
 20
6.585128
 30
0.0
 11
85.492035
 21
6.585563
 31
0.0
  0
LINE
  5
91F
330
1F
100
AcDbEntity
  8
1
  6
CONTINUOUS
370
50
 62
4
100
AcDbLine
 10
85.90272499999999
 20
6.584727
 30
0.0
 11
85.69738799999999
 21
6.585128
 31
0.0
  0
LINE
  5
920
330
1F
100
AcDbEntity
  8
1
  6
CONTINUOUS
370
50
 62
4
100
AcDbLine
 10
88.52111099999999
 20
6.581656
 30
0.0
 11
88.31624599999999
 21
6.582042
 31
0.0
  0
LINE
  5
921
330
1F
100
AcDbEntity
  8
1
  6
CONTINUOUS
370
50
 62
4
100
AcDbLine
 10
86.108063
 20
6.584360999999999
 30
0.0
 11
85.90272499999999
 21
6.584727
 31
0.0
  0
LINE
  5
922
330
1F
100
AcDbEntity
  8
1
  6
CONTINUOUS
370
50
 62
4
100
AcDbLine
 10
86.313408
 20
6.584031
 30
0.0
 11
86.108063
 21
6.584360999999999
 31
0.0
  0
LINE
  5
923
330
1F
100
AcDbEntity
  8
1
  6
CONTINUOUS
370
50
 62
4
100
AcDbLine
 10
88.31624599999999
 20
6.582042
 30
0.0
 11
88.11138199999999
 21
6.582364
 31
0.0
  0
LINE
  5
924
330
1F
100
AcDbEntity
  8
1
  6
CONTINUOUS
370
50
 62
4
100
AcDbLine
 10
86.518761
 20
6.583739
 30
0.0
 11
86.313408
 21
6.584031
 31
0.0
  0
LINE
  5
925
330
1F
100
AcDbEntity
  8
1
  6
CONTINUOUS
370
50
 62
4
100
AcDbLine
 10
88.11138199999999
 20
6.582364
 30
0.0
 11
87.906532
 21
6.582618999999999
 31
0.0
  0
LINE
  5
926
330
1F
100
AcDbEntity
  8
1
  6
CONTINUOUS
370
50
 62
4
100
AcDbLine
 10
86.782364
 20
6.583423
 30
0.0
 11
86.518761
 21
6.583739
 31
0.0
  0
LINE
  5
927
330
1F
100
AcDbEntity
  8
1
  6
CONTINUOUS
370
50
 62
4
100
AcDbLine
 10
87.080917
 20
6.583146999999999
 30
0.0
 11
86.782364
 21
6.583423
 31
0.0
  0
LINE
  5
928
330
1F
100
AcDbEntity
  8
1
  6
CONTINUOUS
370
50
 62
4
100
AcDbLine
 10
87.906532
 20
6.582618999999999
 30
0.0
 11
87.701691
 21
6.582802
 31
0.0
  0
LINE
  5
929
330
1F
100
AcDbEntity
  8
1
  6
CONTINUOUS
370
50
 62
4
100
AcDbLine
 10
87.29203799999999
 20
6.583005
 30
0.0
 11
87.080917
 21
6.583146999999999
 31
0.0
  0
LINE
  5
92A
330
1F
100
AcDbEntity
  8
1
  6
CONTINUOUS
370
50
 62
4
100
AcDbLine
 10
87.701691
 20
6.582802
 30
0.0
 11
87.496864
 21
6.582911999999999
 31
0.0
  0
LINE
  5
92B
330
1F
100
AcDbEntity
  8
1
  6
CONTINUOUS
370
50
 62
4
100
AcDbLine
 10
87.496864
 20
6.582911999999999
 30
0.0
 11
87.29203799999999
 21
6.583005
 31
0.0
  0
LINE
  5
92C
330
1F
100
AcDbEntity
  8
1
  6
CONTINUOUS
370
50
 62
4
100
AcDbLine
 10
0.0
 20
-12.5
 30
0.0
 11
1.0
 21
-12.5
 31
0.0
  0
LINE
  5
92D
330
1F
100
AcDbEntity
  8
1
  6
CONTINUOUS
370
50
 62
4
100
AcDbLine
 10
6.319999999999999
 20
-11.99995
 30
0.0
 11
64.924255
 21
-11.99995
 31
0.0
  0
LINE
  5
92E
330
1F
100
AcDbEntity
  8
1
  6
CONTINUOUS
370
50
 62
4
100
AcDbLine
 10
6.319999999999999
 20
11.99995
 30
0.0
 11
64.924255
 21
11.99995
 31
0.0
  0
LINE
  5
92F
330
1F
100
AcDbEntity
  8
1
  6
CONTINUOUS
370
50
 62
4
100
AcDbLine
 10
0.0
 20
12.5
 30
0.0
 11
1.0
 21
12.5
 31
0.0
  0
LINE
  5
930
330
1F
100
AcDbEntity
  8
1
  6
CONTINUOUS
370
50
 62
4
100
AcDbLine
 10
85.6707
 20
-6.585183
 30
0.0
 11
85.879967
 21
-6.58477
 31
0.0
  0
LINE
  5
931
330
1F
100
AcDbEntity
  8
1
  6
CONTINUOUS
370
50
 62
4
100
AcDbLine
 10
85.461418
 20
-6.58563
 30
0.0
 11
85.6707
 21
-6.585183
 31
0.0
  0
LINE
  5
932
330
1F
100
AcDbEntity
  8
1
  6
CONTINUOUS
370
50
 62
4
100
AcDbLine
 10
85.252151
 20
-6.586109
 30
0.0
 11
85.461418
 21
-6.58563
 31
0.0
  0
LINE
  5
933
330
1F
100
AcDbEntity
  8
1
  6
CONTINUOUS
370
50
 62
4
100
AcDbLine
 10
85.036514
 20
-6.586633
 30
0.0
 11
85.252151
 21
-6.586109
 31
0.0
  0
LINE
  5
934
330
1F
100
AcDbEntity
  8
1
  6
CONTINUOUS
370
50
 62
4
100
AcDbLine
 10
84.860596
 20
-6.587081
 30
0.0
 11
85.036514
 21
-6.586633
 31
0.0
  0
LINE
  5
935
330
1F
100
AcDbEntity
  8
1
  6
CONTINUOUS
370
50
 62
4
100
AcDbLine
 10
84.703186
 20
-6.587496
 30
0.0
 11
84.860596
 21
-6.587081
 31
0.0
  0
LINE
  5
936
330
1F
100
AcDbEntity
  8
1
  6
CONTINUOUS
370
50
 62
4
100
AcDbLine
 10
84.54576899999999
 20
-6.587924
 30
0.0
 11
84.703186
 21
-6.587496
 31
0.0
  0
LINE
  5
937
330
1F
100
AcDbEntity
  8
1
  6
CONTINUOUS
370
50
 62
4
100
AcDbLine
 10
82.112473
 20
-6.595084
 30
0.0
 11
82.278099
 21
-6.594625
 31
0.0
  0
LINE
  5
938
330
1F
100
AcDbEntity
  8
1
  6
CONTINUOUS
370
50
 62
4
100
AcDbLine
 10
84.388359
 20
-6.588363999999999
 30
0.0
 11
84.54576899999999
 21
-6.587924
 31
0.0
  0
LINE
  5
939
330
1F
100
AcDbEntity
  8
1
  6
CONTINUOUS
370
50
 62
4
100
AcDbLine
 10
82.278099
 20
-6.594625
 30
0.0
 11
82.443726
 21
-6.594151999999999
 31
0.0
  0
LINE
  5
93A
330
1F
100
AcDbEntity
  8
1
  6
CONTINUOUS
370
50
 62
4
100
AcDbLine
 10
84.205032
 20
-6.588888
 30
0.0
 11
84.388359
 21
-6.588363999999999
 31
0.0
  0
LINE
  5
93B
330
1F
100
AcDbEntity
  8
1
  6
CONTINUOUS
370
50
 62
4
100
AcDbLine
 10
82.443726
 20
-6.594151999999999
 30
0.0
 11
82.609352
 21
-6.593671
 31
0.0
  0
LINE
  5
93C
330
1F
100
AcDbEntity
  8
1
  6
CONTINUOUS
370
50
 62
4
100
AcDbLine
 10
83.998497
 20
-6.589491
 30
0.0
 11
84.205032
 21
-6.588888
 31
0.0
  0
LINE
  5
93D
330
1F
100
AcDbEntity
  8
1
  6
CONTINUOUS
370
50
 62
4
100
AcDbLine
 10
82.609352
 20
-6.593671
 30
0.0
 11
82.776016
 21
-6.593177
 31
0.0
  0
LINE
  5
93E
330
1F
100
AcDbEntity
  8
1
  6
CONTINUOUS
370
50
 62
4
100
AcDbLine
 10
83.795341
 20
-6.590096
 30
0.0
 11
83.998497
 21
-6.589491
 31
0.0
  0
LINE
  5
93F
330
1F
100
AcDbEntity
  8
1
  6
CONTINUOUS
370
50
 62
4
100
AcDbLine
 10
82.776016
 20
-6.593177
 30
0.0
 11
82.982658
 21
-6.592556999999999
 31
0.0
  0
LINE
  5
940
330
1F
100
AcDbEntity
  8
1
  6
CONTINUOUS
370
50
 62
4
100
AcDbLine
 10
83.59217799999999
 20
-6.590707999999999
 30
0.0
 11
83.795341
 21
-6.590096
 31
0.0
  0
LINE
  5
941
330
1F
100
AcDbEntity
  8
1
  6
CONTINUOUS
370
50
 62
4
100
AcDbLine
 10
82.982658
 20
-6.592556999999999
 30
0.0
 11
83.18583699999999
 21
-6.591942
 31
0.0
  0
LINE
  5
942
330
1F
100
AcDbEntity
  8
1
  6
CONTINUOUS
370
50
 62
4
100
AcDbLine
 10
83.18583699999999
 20
-6.591942
 30
0.0
 11
83.59217799999999
 21
-6.590707999999999
 31
0.0
  0
LINE
  5
943
330
1F
100
AcDbEntity
  8
1
  6
CONTINUOUS
370
50
 62
4
100
AcDbLine
 10
97.65550999999999
 20
-11.305879
 30
0.0
 11
97.758324
 21
-11.305201
 31
0.0
  0
LINE
  5
944
330
1F
100
AcDbEntity
  8
1
  6
CONTINUOUS
370
50
 62
4
100
AcDbLine
 10
71.661339
 20
-8.091415
 30
0.0
 11
72.058189
 21
-8.08873
 31
0.0
  0
LINE
  5
945
330
1F
100
AcDbEntity
  8
1
  6
CONTINUOUS
370
50
 62
4
100
AcDbLine
 10
97.60788699999999
 20
12.140223
 30
0.0
 11
97.81002
 21
12.142212
 31
0.0
  0
LINE
  5
946
330
1F
100
AcDbEntity
  8
1
  6
CONTINUOUS
370
50
 62
4
100
AcDbLine
 10
100.095779
 20
-10.080337
 30
0.0
 11
100.139915
 21
-10.079749
 31
0.0
  0
LINE
  5
947
330
1F
100
AcDbEntity
  8
1
  6
CONTINUOUS
370
50
 62
4
100
AcDbLine
 10
64.647308
 20
11.988341
 30
0.0
 11
64.922523
 21
12.000009
 31
0.0
  0
LINE
  5
948
330
1F
100
AcDbEntity
  8
1
  6
CONTINUOUS
370
50
 62
4
100
AcDbLine
 10
64.922523
 20
-12.000009
 30
0.0
 11
65.146446
 21
-11.990435
 31
0.0
  0
LINE
  5
949
330
1F
100
AcDbEntity
  8
1
  6
CONTINUOUS
370
50
 62
4
100
AcDbLine
 10
69.335289
 20
3.126852
 30
0.0
 11
69.68798799999999
 21
3.141988
 31
0.0
  0
LINE
  5
94A
330
1F
100
AcDbEntity
  8
1
  6
CONTINUOUS
370
50
 62
4
100
AcDbLine
 10
72.058189
 20
8.08873
 30
0.0
 11
72.454636
 21
8.109983
 31
0.0
  0
LINE
  5
94B
330
1F
100
AcDbEntity
  8
1
  6
CONTINUOUS
370
50
 62
4
100
AcDbLine
 10
97.81002
 20
-12.142212
 30
0.0
 11
98.011482
 21
-12.130872
 31
0.0
  0
LINE
  5
94C
330
1F
100
AcDbEntity
  8
1
  6
CONTINUOUS
370
50
 62
4
100
AcDbLine
 10
97.758324
 20
-11.305201
 30
0.0
 11
97.862923
 21
-11.298507
 31
0.0
  0
LINE
  5
94D
330
1F
100
AcDbEntity
  8
1
  6
CONTINUOUS
370
50
 62
4
100
AcDbLine
 10
97.405388
 20
12.125144
 30
0.0
 11
97.60788699999999
 21
12.140223
 31
0.0
  0
LINE
  5
94E
330
1F
100
AcDbEntity
  8
1
  6
CONTINUOUS
370
50
 62
4
100
AcDbLine
 10
71.072327
 20
-8.139842999999999
 30
0.0
 11
71.661339
 21
-8.091415
 31
0.0
  0
LINE
  5
94F
330
1F
100
AcDbEntity
  8
1
  6
CONTINUOUS
370
50
 62
4
100
AcDbLine
 10
69.68798799999999
 20
3.141988
 30
0.0
 11
70.03903199999999
 21
3.17418
 31
0.0
  0
LINE
  5
950
330
1F
100
AcDbEntity
  8
1
  6
CONTINUOUS
370
50
 62
4
100
AcDbLine
 10
1.0
 20
-12.49995
 30
0.0
 11
6.319999999999999
 21
-11.99995
 31
0.0
  0
LINE
  5
951
330
1F
100
AcDbEntity
  8
1
  6
CONTINUOUS
370
50
 62
4
100
AcDbLine
 10
100.139915
 20
-10.079749
 30
0.0
 11
100.183777
 21
-10.07548
 31
0.0
  0
LINE
  5
952
330
1F
100
AcDbEntity
  8
1
  6
CONTINUOUS
370
50
 62
4
100
AcDbLine
 10
95.740746
 20
6.204597
 30
0.0
 11
95.88370499999999
 21
6.2193
 31
0.0
  0
LINE
  5
953
330
1F
100
AcDbEntity
  8
1
  6
CONTINUOUS
370
50
 62
4
100
AcDbLine
 10
83.38488799999999
 20
-6.630656
 30
0.0
 11
83.639679
 21
-6.603206
 31
0.0
  0
LINE
  5
954
330
1F
100
AcDbEntity
  8
1
  6
CONTINUOUS
370
50
 62
4
100
AcDbLine
 10
64.34387199999999
 20
11.954786
 30
0.0
 11
64.647308
 21
11.988341
 31
0.0
  0
LINE
  5
955
330
1F
100
AcDbEntity
  8
1
  6
CONTINUOUS
370
50
 62
4
100
AcDbLine
 10
83.130127
 20
-6.659212
 30
0.0
 11
83.38488799999999
 21
-6.630656
 31
0.0
  0
LINE
  5
956
330
1F
100
AcDbEntity
  8
1
  6
CONTINUOUS
370
50
 62
4
100
AcDbLine
 10
72.454636
 20
8.109983
 30
0.0
 11
72.840904
 21
8.153807
 31
0.0
  0
LINE
  5
957
330
1F
100
AcDbEntity
  8
1
  6
CONTINUOUS
370
50
 62
4
100
AcDbLine
 10
82.865028
 20
-6.69014
 30
0.0
 11
83.130127
 21
-6.659212
 31
0.0
  0
LINE
  5
958
330
1F
100
AcDbEntity
  8
1
  6
CONTINUOUS
370
50
 62
4
100
AcDbLine
 10
82.665733
 20
-6.714144999999999
 30
0.0
 11
82.865028
 21
-6.69014
 31
0.0
  0
LINE
  5
959
330
1F
100
AcDbEntity
  8
1
  6
CONTINUOUS
370
50
 62
4
100
AcDbLine
 10
97.862923
 20
-11.298507
 30
0.0
 11
97.96921499999999
 21
-11.285487
 31
0.0
  0
LINE
  5
95A
330
1F
100
AcDbEntity
  8
1
  6
CONTINUOUS
370
50
 62
4
100
AcDbLine
 10
82.483925
 20
-6.736704
 30
0.0
 11
82.665733
 21
-6.714144999999999
 31
0.0
  0
LINE
  5
95B
330
1F
100
AcDbEntity
  8
1
  6
CONTINUOUS
370
50
 62
4
100
AcDbLine
 10
98.011482
 20
-12.130872
 30
0.0
 11
98.211945
 21
-12.10596
 31
0.0
  0
LINE
  5
95C
330
1F
100
AcDbEntity
  8
1
  6
CONTINUOUS
370
50
 62
4
100
AcDbLine
 10
82.192657
 20
-6.773967
 30
0.0
 11
82.483925
 21
-6.736704
 31
0.0
  0
LINE
  5
95D
330
1F
100
AcDbEntity
  8
1
  6
CONTINUOUS
370
50
 62
4
100
AcDbLine
 10
81.91906
 20
-6.810366999999999
 30
0.0
 11
82.192657
 21
-6.773967
 31
0.0
  0
LINE
  5
95E
330
1F
100
AcDbEntity
  8
1
  6
CONTINUOUS
370
50
 62
4
100
AcDbLine
 10
58.44677
 20
10.532217
 30
0.0
 11
58.54385
 21
10.545432
 31
0.0
  0
LINE
  5
95F
330
1F
100
AcDbEntity
  8
1
  6
CONTINUOUS
370
50
 62
4
100
AcDbLine
 10
97.20279699999999
 20
12.09721
 30
0.0
 11
97.405388
 21
12.125144
 31
0.0
  0
LINE
  5
960
330
1F
100
AcDbEntity
  8
1
  6
CONTINUOUS
370
50
 62
4
100
AcDbLine
 10
81.645477
 20
-6.848103999999999
 30
0.0
 11
81.91906
 21
-6.810366999999999
 31
0.0
  0
LINE
  5
961
330
1F
100
AcDbEntity
  8
1
  6
CONTINUOUS
370
50
 62
4
100
AcDbLine
 10
70.03903199999999
 20
3.17418
 30
0.0
 11
70.375046
 21
3.221653
 31
0.0
  0
LINE
  5
962
330
1F
100
AcDbEntity
  8
1
  6
CONTINUOUS
370
50
 62
4
100
AcDbLine
 10
81.371895
 20
-6.887194
 30
0.0
 11
81.645477
 21
-6.848103999999999
 31
0.0
  0
LINE
  5
963
330
1F
100
AcDbEntity
  8
1
  6
CONTINUOUS
370
50
 62
4
100
AcDbLine
 10
81.098343
 20
-6.927651
 30
0.0
 11
81.371895
 21
-6.887194
 31
0.0
  0
LINE
  5
964
330
1F
100
AcDbEntity
  8
1
  6
CONTINUOUS
370
50
 62
4
100
AcDbLine
 10
65.146446
 20
-11.990435
 30
0.0
 11
65.345787
 21
-11.960527
 31
0.0
  0
LINE
  5
965
330
1F
100
AcDbEntity
  8
1
  6
CONTINUOUS
370
50
 62
4
100
AcDbLine
 10
80.82479099999999
 20
-6.969497
 30
0.0
 11
81.098343
 21
-6.927651
 31
0.0
  0
LINE
  5
966
330
1F
100
AcDbEntity
  8
1
  6
CONTINUOUS
370
50
 62
4
100
AcDbLine
 10
80.551071
 20
-7.012777
 30
0.0
 11
80.82479099999999
 21
-6.969497
 31
0.0
  0
LINE
  5
967
330
1F
100
AcDbEntity
  8
1
  6
CONTINUOUS
370
50
 62
4
100
AcDbLine
 10
64.015007
 20
11.901121
 30
0.0
 11
64.34387199999999
 21
11.954786
 31
0.0
  0
LINE
  5
968
330
1F
100
AcDbEntity
  8
1
  6
CONTINUOUS
370
50
 62
4
100
AcDbLine
 10
80.278572
 20
-7.057282
 30
0.0
 11
80.551071
 21
-7.012777
 31
0.0
  0
LINE
  5
969
330
1F
100
AcDbEntity
  8
1
  6
CONTINUOUS
370
50
 62
4
100
AcDbLine
 10
80.006699
 20
-7.103116999999999
 30
0.0
 11
80.278572
 21
-7.057282
 31
0.0
  0
LINE
  5
96A
330
1F
100
AcDbEntity
  8
1
  6
CONTINUOUS
370
50
 62
4
100
AcDbLine
 10
70.487099
 20
-8.241616
 30
0.0
 11
71.072327
 21
-8.139842999999999
 31
0.0
  0
LINE
  5
96B
330
1F
100
AcDbEntity
  8
1
  6
CONTINUOUS
370
50
 62
4
100
AcDbLine
 10
79.734779
 20
-7.15041
 30
0.0
 11
80.006699
 21
-7.103116999999999
 31
0.0
  0
LINE
  5
96C
330
1F
100
AcDbEntity
  8
1
  6
CONTINUOUS
370
50
 62
4
100
AcDbLine
 10
58.352276
 20
10.515681
 30
0.0
 11
58.44677
 21
10.532217
 31
0.0
  0
LINE
  5
96D
330
1F
100
AcDbEntity
  8
1
  6
CONTINUOUS
370
50
 62
4
100
AcDbLine
 10
79.462875
 20
-7.19917
 30
0.0
 11
79.734779
 21
-7.15041
 31
0.0
  0
LINE
  5
96E
330
1F
100
AcDbEntity
  8
1
  6
CONTINUOUS
370
50
 62
4
100
AcDbLine
 10
97.96921499999999
 20
-11.285487
 30
0.0
 11
98.076622
 21
-11.265937
 31
0.0
  0
LINE
  5
96F
330
1F
100
AcDbEntity
  8
1
  6
CONTINUOUS
370
50
 62
4
100
AcDbLine
 10
100.183777
 20
-10.07548
 30
0.0
 11
100.227249
 21
-10.067539
 31
0.0
  0
LINE
  5
970
330
1F
100
AcDbEntity
  8
1
  6
CONTINUOUS
370
50
 62
4
100
AcDbLine
 10
79.190956
 20
-7.249423999999999
 30
0.0
 11
79.462875
 21
-7.19917
 31
0.0
  0
LINE
  5
971
330
1F
100
AcDbEntity
  8
1
  6
CONTINUOUS
370
50
 62
4
100
AcDbLine
 10
72.840904
 20
8.153807
 30
0.0
 11
73.42392
 21
8.263838999999999
 31
0.0
  0
LINE
  5
972
330
1F
100
AcDbEntity
  8
1
  6
CONTINUOUS
370
50
 62
4
100
AcDbLine
 10
78.919052
 20
-7.301188
 30
0.0
 11
79.190956
 21
-7.249423999999999
 31
0.0
  0
LINE
  5
973
330
1F
100
AcDbEntity
  8
1
  6
CONTINUOUS
370
50
 62
4
100
AcDbLine
 10
70.375046
 20
3.221653
 30
0.0
 11
70.69800599999999
 21
3.283521
 31
0.0
  0
LINE
  5
974
330
1F
100
AcDbEntity
  8
1
  6
CONTINUOUS
370
50
 62
4
100
AcDbLine
 10
98.211945
 20
-12.10596
 30
0.0
 11
98.411034
 21
-12.067232
 31
0.0
  0
LINE
  5
975
330
1F
100
AcDbEntity
  8
1
  6
CONTINUOUS
370
50
 62
4
100
AcDbLine
 10
78.647133
 20
-7.354487
 30
0.0
 11
78.919052
 21
-7.301188
 31
0.0
  0
LINE
  5
976
330
1F
100
AcDbEntity
  8
1
  6
CONTINUOUS
370
50
 62
4
100
AcDbLine
 10
58.54385
 20
10.545432
 30
0.0
 11
59.092098
 21
10.654272
 31
0.0
  0
LINE
  5
977
330
1F
100
AcDbEntity
  8
1
  6
CONTINUOUS
370
50
 62
4
100
AcDbLine
 10
97.0
 20
12.056646
 30
0.0
 11
97.20279699999999
 21
12.09721
 31
0.0
  0
LINE
  5
978
330
1F
100
AcDbEntity
  8
1
  6
CONTINUOUS
370
50
 62
4
100
AcDbLine
 10
78.35060899999999
 20
-7.414418
 30
0.0
 11
78.647133
 21
-7.354487
 31
0.0
  0
LINE
  5
979
330
1F
100
AcDbEntity
  8
1
  6
CONTINUOUS
370
50
 62
4
100
AcDbLine
 10
63.662296
 20
11.829648
 30
0.0
 11
64.015007
 21
11.901121
 31
0.0
  0
LINE
  5
97A
330
1F
100
AcDbEntity
  8
1
  6
CONTINUOUS
370
50
 62
4
100
AcDbLine
 10
78.221352
 20
-7.441071999999999
 30
0.0
 11
78.35060899999999
 21
-7.414418
 31
0.0
  0
LINE
  5
97B
330
1F
100
AcDbEntity
  8
1
  6
CONTINUOUS
370
50
 62
4
100
AcDbLine
 10
96.14119
 20
10.375951
 30
0.0
 11
96.76072699999999
 21
10.505011
 31
0.0
  0
LINE
  5
97C
330
1F
100
AcDbEntity
  8
1
  6
CONTINUOUS
370
50
 62
4
100
AcDbLine
 10
78.01508299999999
 20
-7.484439999999999
 30
0.0
 11
78.221352
 21
-7.441071999999999
 31
0.0
  0
LINE
  5
97D
330
1F
100
AcDbEntity
  8
1
  6
CONTINUOUS
370
50
 62
4
100
AcDbLine
 10
98.59024
 20
10.927234
 30
0.0
 11
99.12411499999999
 21
11.041091
 31
0.0
  0
LINE
  5
97E
330
1F
100
AcDbEntity
  8
1
  6
CONTINUOUS
370
50
 62
4
100
AcDbLine
 10
77.746574
 20
-7.542084999999999
 30
0.0
 11
78.01508299999999
 21
-7.484439999999999
 31
0.0
  0
LINE
  5
97F
330
1F
100
AcDbEntity
  8
1
  6
CONTINUOUS
370
50
 62
4
100
AcDbLine
 10
97.952049
 20
10.788356
 30
0.0
 11
98.59024
 21
10.927234
 31
0.0
  0
LINE
  5
980
330
1F
100
AcDbEntity
  8
1
  6
CONTINUOUS
370
50
 62
4
100
AcDbLine
 10
77.486595
 20
-7.598681
 30
0.0
 11
77.746574
 21
-7.542084999999999
 31
0.0
  0
LINE
  5
981
330
1F
100
AcDbEntity
  8
1
  6
CONTINUOUS
370
50
 62
4
100
AcDbLine
 10
58.260757
 20
10.495735
 30
0.0
 11
58.352276
 21
10.515681
 31
0.0
  0
LINE
  5
982
330
1F
100
AcDbEntity
  8
1
  6
CONTINUOUS
370
50
 62
4
100
AcDbLine
 10
77.226509
 20
-7.655894999999999
 30
0.0
 11
77.486595
 21
-7.598681
 31
0.0
  0
LINE
  5
983
330
1F
100
AcDbEntity
  8
1
  6
CONTINUOUS
370
50
 62
4
100
AcDbLine
 10
59.092098
 20
10.654272
 30
0.0
 11
59.62471
 21
10.772461
 31
0.0
  0
LINE
  5
984
330
1F
100
AcDbEntity
  8
1
  6
CONTINUOUS
370
50
 62
4
100
AcDbLine
 10
76.966492
 20
-7.713680999999999
 30
0.0
 11
77.226509
 21
-7.655894999999999
 31
0.0
  0
LINE
  5
985
330
1F
100
AcDbEntity
  8
1
  6
CONTINUOUS
370
50
 62
4
100
AcDbLine
 10
76.706383
 20
-7.772063999999999
 30
0.0
 11
76.966492
 21
-7.713680999999999
 31
0.0
  0
LINE
  5
986
330
1F
100
AcDbEntity
  8
1
  6
CONTINUOUS
370
50
 62
4
100
AcDbLine
 10
76.446327
 20
-7.831004
 30
0.0
 11
76.706383
 21
-7.772063999999999
 31
0.0
  0
LINE
  5
987
330
1F
100
AcDbEntity
  8
1
  6
CONTINUOUS
370
50
 62
4
100
AcDbLine
 10
76.176834
 20
-7.892677
 30
0.0
 11
76.446327
 21
-7.831004
 31
0.0
  0
LINE
  5
988
330
1F
100
AcDbEntity
  8
1
  6
CONTINUOUS
370
50
 62
4
100
AcDbLine
 10
73.494415
 20
2.754395
 30
0.0
 11
74.0
 21
2.871003
 31
0.0
  0
LINE
  5
989
330
1F
100
AcDbEntity
  8
1
  6
CONTINUOUS
370
50
 62
4
100
AcDbLine
 10
75.999321
 20
-7.933624
 30
0.0
 11
76.176834
 21
-7.892677
 31
0.0
  0
LINE
  5
98A
330
1F
100
AcDbEntity
  8
1
  6
CONTINUOUS
370
50
 62
4
100
AcDbLine
 10
63.28721599999999
 20
11.742687
 30
0.0
 11
63.662296
 21
11.829648
 31
0.0
  0
LINE
  5
98B
330
1F
100
AcDbEntity
  8
1
  6
CONTINUOUS
370
50
 62
4
100
AcDbLine
 10
99.12411499999999
 20
11.041091
 30
0.0
 11
99.546669
 21
11.139231
 31
0.0
  0
LINE
  5
98C
330
1F
100
AcDbEntity
  8
1
  6
CONTINUOUS
370
50
 62
4
100
AcDbLine
 10
75.759796
 20
-7.989288999999999
 30
0.0
 11
75.999321
 21
-7.933624
 31
0.0
  0
LINE
  5
98D
330
1F
100
AcDbEntity
  8
1
  6
CONTINUOUS
370
50
 62
4
100
AcDbLine
 10
95.60623199999999
 20
9.647196
 30
0.0
 11
96.31057
 21
9.811376
 31
0.0
  0
LINE
  5
98E
330
1F
100
AcDbEntity
  8
1
  6
CONTINUOUS
370
50
 62
4
100
AcDbLine
 10
75.507935
 20
-8.048324
 30
0.0
 11
75.759796
 21
-7.989288999999999
 31
0.0
  0
LINE
  5
98F
330
1F
100
AcDbEntity
  8
1
  6
CONTINUOUS
370
50
 62
4
100
AcDbLine
 10
97.26036099999999
 20
10.625289
 30
0.0
 11
97.952049
 21
10.788356
 31
0.0
  0
LINE
  5
990
330
1F
100
AcDbEntity
  8
1
  6
CONTINUOUS
370
50
 62
4
100
AcDbLine
 10
75.257042
 20
-8.107649
 30
0.0
 11
75.507935
 21
-8.048324
 31
0.0
  0
LINE
  5
991
330
1F
100
AcDbEntity
  8
1
  6
CONTINUOUS
370
50
 62
4
100
AcDbLine
 10
75.006142
 20
-8.167494
 30
0.0
 11
75.257042
 21
-8.107649
 31
0.0
  0
LINE
  5
992
330
1F
100
AcDbEntity
  8
1
  6
CONTINUOUS
370
50
 62
4
100
AcDbLine
 10
74.755264
 20
-8.227853
 30
0.0
 11
75.006142
 21
-8.167494
 31
0.0
  0
LINE
  5
993
330
1F
100
AcDbEntity
  8
1
  6
CONTINUOUS
370
50
 62
4
100
AcDbLine
 10
96.76072699999999
 20
10.505011
 30
0.0
 11
97.26036099999999
 21
10.625289
 31
0.0
  0
LINE
  5
994
330
1F
100
AcDbEntity
  8
1
  6
CONTINUOUS
370
50
 62
4
100
AcDbLine
 10
59.62471
 20
10.772461
 30
0.0
 11
60.14137299999999
 21
10.897384
 31
0.0
  0
LINE
  5
995
330
1F
100
AcDbEntity
  8
1
  6
CONTINUOUS
370
50
 62
4
100
AcDbLine
 10
98.076622
 20
-11.265937
 30
0.0
 11
98.18313599999999
 21
-11.24013
 31
0.0
  0
LINE
  5
996
330
1F
100
AcDbEntity
  8
1
  6
CONTINUOUS
370
50
 62
4
100
AcDbLine
 10
74.504379
 20
-8.288736
 30
0.0
 11
74.755264
 21
-8.227853
 31
0.0
  0
LINE
  5
997
330
1F
100
AcDbEntity
  8
1
  6
CONTINUOUS
370
50
 62
4
100
AcDbLine
 10
70.69800599999999
 20
3.283521
 30
0.0
 11
71.006401
 21
3.358581
 31
0.0
  0
LINE
  5
998
330
1F
100
AcDbEntity
  8
1
  6
CONTINUOUS
370
50
 62
4
100
AcDbLine
 10
74.253494
 20
-8.350147
 30
0.0
 11
74.504379
 21
-8.288736
 31
0.0
  0
LINE
  5
999
330
1F
100
AcDbEntity
  8
1
  6
CONTINUOUS
370
50
 62
4
100
AcDbLine
 10
96.41803
 20
11.913848
 30
0.0
 11
97.0
 21
12.056646
 31
0.0
  0
LINE
  5
99A
330
1F
100
AcDbEntity
  8
1
  6
CONTINUOUS
370
50
 62
4
100
AcDbLine
 10
74.002617
 20
-8.412089
 30
0.0
 11
74.253494
 21
-8.350147
 31
0.0
  0
LINE
  5
99B
330
1F
100
AcDbEntity
  8
1
  6
CONTINUOUS
370
50
 62
4
100
AcDbLine
 10
74.00102199999999
 20
-8.412486
 30
0.0
 11
74.001556
 21
-8.412353999999999
 31
0.0
  0
LINE
  5
99C
330
1F
100
AcDbEntity
  8
1
  6
CONTINUOUS
370
50
 62
4
100
AcDbLine
 10
74.00263199999999
 20
-8.412086
 30
0.0
 11
74.003166
 21
-8.411954
 31
0.0
  0
LINE
  5
99D
330
1F
100
AcDbEntity
  8
1
  6
CONTINUOUS
370
50
 62
4
100
AcDbLine
 10
74.00209
 20
-8.41222
 30
0.0
 11
74.00263199999999
 21
-8.412086
 31
0.0
  0
LINE
  5
99E
330
1F
100
AcDbEntity
  8
1
  6
CONTINUOUS
370
50
 62
4
100
AcDbLine
 10
74.000481
 20
-8.41262
 30
0.0
 11
74.00102199999999
 21
-8.412486
 31
0.0
  0
LINE
  5
99F
330
1F
100
AcDbEntity
  8
1
  6
CONTINUOUS
370
50
 62
4
100
AcDbLine
 10
73.99994699999999
 20
-8.412753
 30
0.0
 11
74.000481
 21
-8.41262
 31
0.0
  0
LINE
  5
9A0
330
1F
100
AcDbEntity
  8
1
  6
CONTINUOUS
370
50
 62
4
100
AcDbLine
 10
74.001556
 20
-8.412353999999999
 30
0.0
 11
74.00209
 21
-8.41222
 31
0.0
  0
LINE
  5
9A1
330
1F
100
AcDbEntity
  8
1
  6
CONTINUOUS
370
50
 62
4
100
AcDbLine
 10
62.891247
 20
11.642559
 30
0.0
 11
63.28721599999999
 21
11.742687
 31
0.0
  0
LINE
  5
9A2
330
1F
100
AcDbEntity
  8
1
  6
CONTINUOUS
370
50
 62
4
100
AcDbLine
 10
72.992188
 20
2.625936
 30
0.0
 11
73.494415
 21
2.754395
 31
0.0
  0
LINE
  5
9A3
330
1F
100
AcDbEntity
  8
1
  6
CONTINUOUS
370
50
 62
4
100
AcDbLine
 10
95.88370499999999
 20
6.2193
 30
0.0
 11
96.016365
 21
6.253451999999999
 31
0.0
  0
LINE
  5
9A4
330
1F
100
AcDbEntity
  8
1
  6
CONTINUOUS
370
50
 62
4
100
AcDbLine
 10
60.14137299999999
 20
10.897384
 30
0.0
 11
60.64178099999999
 21
11.026423
 31
0.0
  0
LINE
  5
9A5
330
1F
100
AcDbEntity
  8
1
  6
CONTINUOUS
370
50
 62
4
100
AcDbLine
 10
94.901901
 20
9.463125
 30
0.0
 11
95.60623199999999
 21
9.647196
 31
0.0
  0
LINE
  5
9A6
330
1F
100
AcDbEntity
  8
1
  6
CONTINUOUS
370
50
 62
4
100
AcDbLine
 10
69.980728
 20
-8.374487
 30
0.0
 11
70.487099
 21
-8.241616
 31
0.0
  0
LINE
  5
9A7
330
1F
100
AcDbEntity
  8
1
  6
CONTINUOUS
370
50
 62
4
100
AcDbLine
 10
58.1726
 20
10.472288
 30
0.0
 11
58.260757
 21
10.495735
 31
0.0
  0
LINE
  5
9A8
330
1F
100
AcDbEntity
  8
1
  6
CONTINUOUS
370
50
 62
4
100
AcDbLine
 10
62.47586399999999
 20
11.531585
 30
0.0
 11
62.891247
 21
11.642559
 31
0.0
  0
LINE
  5
9A9
330
1F
100
AcDbEntity
  8
1
  6
CONTINUOUS
370
50
 62
4
100
AcDbLine
 10
98.411034
 20
-12.067232
 30
0.0
 11
98.60833
 21
-12.014454
 31
0.0
  0
LINE
  5
9AA
330
1F
100
AcDbEntity
  8
1
  6
CONTINUOUS
370
50
 62
4
100
AcDbLine
 10
60.64178099999999
 20
11.026423
 30
0.0
 11
61.125618
 21
11.156962
 31
0.0
  0
LINE
  5
9AB
330
1F
100
AcDbEntity
  8
1
  6
CONTINUOUS
370
50
 62
4
100
AcDbLine
 10
100.227249
 20
-10.067539
 30
0.0
 11
100.270203
 21
-10.055937
 31
0.0
  0
LINE
  5
9AC
330
1F
100
AcDbEntity
  8
1
  6
CONTINUOUS
370
50
 62
4
100
AcDbLine
 10
95.83273299999999
 20
11.752807
 30
0.0
 11
96.41803
 21
11.913848
 31
0.0
  0
LINE
  5
9AD
330
1F
100
AcDbEntity
  8
1
  6
CONTINUOUS
370
50
 62
4
100
AcDbLine
 10
62.042557
 20
11.412085
 30
0.0
 11
62.47586399999999
 21
11.531585
 31
0.0
  0
LINE
  5
9AE
330
1F
100
AcDbEntity
  8
1
  6
CONTINUOUS
370
50
 62
4
100
AcDbLine
 10
61.125618
 20
11.156962
 30
0.0
 11
61.592583
 21
11.286386
 31
0.0
  0
LINE
  5
9AF
330
1F
100
AcDbEntity
  8
1
  6
CONTINUOUS
370
50
 62
4
100
AcDbLine
 10
61.592583
 20
11.286386
 30
0.0
 11
62.042557
 21
11.412085
 31
0.0
  0
LINE
  5
9B0
330
1F
100
AcDbEntity
  8
1
  6
CONTINUOUS
370
50
 62
4
100
AcDbLine
 10
72.493454
 20
2.485538
 30
0.0
 11
72.992188
 21
2.625936
 31
0.0
  0
LINE
  5
9B1
330
1F
100
AcDbEntity
  8
1
  6
CONTINUOUS
370
50
 62
4
100
AcDbLine
 10
73.42392
 20
8.263838999999999
 30
0.0
 11
74.0
 21
8.426086999999999
 31
0.0
  0
LINE
  5
9B2
330
1F
100
AcDbEntity
  8
1
  6
CONTINUOUS
370
50
 62
4
100
AcDbLine
 10
99.546669
 20
11.139231
 30
0.0
 11
99.89061
 21
11.237567
 31
0.0
  0
LINE
  5
9B3
330
1F
100
AcDbEntity
  8
1
  6
CONTINUOUS
370
50
 62
4
100
AcDbLine
 10
94.197571
 20
9.26004
 30
0.0
 11
94.901901
 21
9.463125
 31
0.0
  0
LINE
  5
9B4
330
1F
100
AcDbEntity
  8
1
  6
CONTINUOUS
370
50
 62
4
100
AcDbLine
 10
65.345787
 20
-11.960527
 30
0.0
 11
65.520119
 21
-11.909139
 31
0.0
  0
LINE
  5
9B5
330
1F
100
AcDbEntity
  8
1
  6
CONTINUOUS
370
50
 62
4
100
AcDbLine
 10
71.006401
 20
3.358581
 30
0.0
 11
71.29911
 21
3.445674
 31
0.0
  0
LINE
  5
9B6
330
1F
100
AcDbEntity
  8
1
  6
CONTINUOUS
370
50
 62
4
100
AcDbLine
 10
98.18313599999999
 20
-11.24013
 30
0.0
 11
98.288513
 21
-11.208194
 31
0.0
  0
LINE
  5
9B7
330
1F
100
AcDbEntity
  8
1
  6
CONTINUOUS
370
50
 62
4
100
AcDbLine
 10
95.24472
 20
11.574036
 30
0.0
 11
95.83273299999999
 21
11.752807
 31
0.0
  0
LINE
  5
9B8
330
1F
100
AcDbEntity
  8
1
  6
CONTINUOUS
370
50
 62
4
100
AcDbLine
 10
71.998367
 20
2.333115
 30
0.0
 11
72.493454
 21
2.485538
 31
0.0
  0
LINE
  5
9B9
330
1F
100
AcDbEntity
  8
1
  6
CONTINUOUS
370
50
 62
4
100
AcDbLine
 10
93.49323299999999
 20
9.038306
 30
0.0
 11
94.197571
 21
9.26004
 31
0.0
  0
LINE
  5
9BA
330
1F
100
AcDbEntity
  8
1
  6
CONTINUOUS
370
50
 62
4
100
AcDbLine
 10
58.088196
 20
10.445254
 30
0.0
 11
58.1726
 21
10.472288
 31
0.0
  0
LINE
  5
9BB
330
1F
100
AcDbEntity
  8
1
  6
CONTINUOUS
370
50
 62
4
100
AcDbLine
 10
94.654617
 20
11.378049
 30
0.0
 11
95.24472
 21
11.574036
 31
0.0
  0
LINE
  5
9BC
330
1F
100
AcDbEntity
  8
1
  6
CONTINUOUS
370
50
 62
4
100
AcDbLine
 10
71.50704999999999
 20
2.16858
 30
0.0
 11
71.998367
 21
2.333115
 31
0.0
  0
LINE
  5
9BD
330
1F
100
AcDbEntity
  8
1
  6
CONTINUOUS
370
50
 62
4
100
AcDbLine
 10
92.788895
 20
8.798045
 30
0.0
 11
93.49323299999999
 21
9.038306
 31
0.0
  0
LINE
  5
9BE
330
1F
100
AcDbEntity
  8
1
  6
CONTINUOUS
370
50
 62
4
100
AcDbLine
 10
98.60833
 20
-12.014454
 30
0.0
 11
98.80330699999999
 21
-11.947434
 31
0.0
  0
LINE
  5
9BF
330
1F
100
AcDbEntity
  8
1
  6
CONTINUOUS
370
50
 62
4
100
AcDbLine
 10
69.481529
 20
-8.54839
 30
0.0
 11
69.980728
 21
-8.374487
 31
0.0
  0
LINE
  5
9C0
330
1F
100
AcDbEntity
  8
1
  6
CONTINUOUS
370
50
 62
4
100
AcDbLine
 10
71.29911
 20
3.445674
 30
0.0
 11
71.574997
 21
3.543638
 31
0.0
  0
LINE
  5
9C1
330
1F
100
AcDbEntity
  8
1
  6
CONTINUOUS
370
50
 62
4
100
AcDbLine
 10
94.063026
 20
11.165362
 30
0.0
 11
94.654617
 21
11.378049
 31
0.0
  0
LINE
  5
9C2
330
1F
100
AcDbEntity
  8
1
  6
CONTINUOUS
370
50
 62
4
100
AcDbLine
 10
100.270203
 20
-10.055937
 30
0.0
 11
100.312515
 21
-10.040684
 31
0.0
  0
LINE
  5
9C3
330
1F
100
AcDbEntity
  8
1
  6
CONTINUOUS
370
50
 62
4
100
AcDbLine
 10
71.01975999999999
 20
1.991886
 30
0.0
 11
71.50704999999999
 21
2.16858
 31
0.0
  0
LINE
  5
9C4
330
1F
100
AcDbEntity
  8
1
  6
CONTINUOUS
370
50
 62
4
100
AcDbLine
 10
98.288513
 20
-11.208194
 30
0.0
 11
98.392708
 21
-11.170223
 31
0.0
  0
LINE
  5
9C5
330
1F
100
AcDbEntity
  8
1
  6
CONTINUOUS
370
50
 62
4
100
AcDbLine
 10
92.084549
 20
8.539375
 30
0.0
 11
92.788895
 21
8.798045
 31
0.0
  0
LINE
  5
9C6
330
1F
100
AcDbEntity
  8
1
  6
CONTINUOUS
370
50
 62
4
100
AcDbLine
 10
58.00864
 20
10.414812
 30
0.0
 11
58.088196
 21
10.445254
 31
0.0
  0
LINE
  5
9C7
330
1F
100
AcDbEntity
  8
1
  6
CONTINUOUS
370
50
 62
4
100
AcDbLine
 10
93.470367
 20
10.936383
 30
0.0
 11
94.063026
 21
11.165362
 31
0.0
  0
LINE
  5
9C8
330
1F
100
AcDbEntity
  8
1
  6
CONTINUOUS
370
50
 62
4
100
AcDbLine
 10
70.537346
 20
1.803227
 30
0.0
 11
71.01975999999999
 21
1.991886
 31
0.0
  0
LINE
  5
9C9
330
1F
100
AcDbEntity
  8
1
  6
CONTINUOUS
370
50
 62
4
100
AcDbLine
 10
91.38018799999999
 20
8.262205
 30
0.0
 11
92.084549
 21
8.539375
 31
0.0
  0
LINE
  5
9CA
330
1F
100
AcDbEntity
  8
1
  6
CONTINUOUS
370
50
 62
4
100
AcDbLine
 10
69.345322
 20
-8.603608
 30
0.0
 11
69.481529
 21
-8.54839
 31
0.0
  0
LINE
  5
9CB
330
1F
100
AcDbEntity
  8
1
  6
CONTINUOUS
370
50
 62
4
100
AcDbLine
 10
92.875946
 20
10.690865
 30
0.0
 11
93.470367
 21
10.936383
 31
0.0
  0
LINE
  5
9CC
330
1F
100
AcDbEntity
  8
1
  6
CONTINUOUS
370
50
 62
4
100
AcDbLine
 10
71.574997
 20
3.543638
 30
0.0
 11
71.83292399999999
 21
3.651314
 31
0.0
  0
LINE
  5
9CD
330
1F
100
AcDbEntity
  8
1
  6
CONTINUOUS
370
50
 62
4
100
AcDbLine
 10
70.060051
 20
1.602623
 30
0.0
 11
70.537346
 21
1.803227
 31
0.0
  0
LINE
  5
9CE
330
1F
100
AcDbEntity
  8
1
  6
CONTINUOUS
370
50
 62
4
100
AcDbLine
 10
90.675827
 20
7.966112
 30
0.0
 11
91.38018799999999
 21
8.262205
 31
0.0
  0
LINE
  5
9CF
330
1F
100
AcDbEntity
  8
1
  6
CONTINUOUS
370
50
 62
4
100
AcDbLine
 10
98.80330699999999
 20
-11.947434
 30
0.0
 11
98.995392
 21
-11.865987
 31
0.0
  0
LINE
  5
9D0
330
1F
100
AcDbEntity
  8
1
  6
CONTINUOUS
370
50
 62
4
100
AcDbLine
 10
98.392708
 20
-11.170223
 30
0.0
 11
98.495682
 21
-11.126316
 31
0.0
  0
LINE
  5
9D1
330
1F
100
AcDbEntity
  8
1
  6
CONTINUOUS
370
50
 62
4
100
AcDbLine
 10
96.016365
 20
6.253451999999999
 30
0.0
 11
96.137436
 21
6.306601
 31
0.0
  0
LINE
  5
9D2
330
1F
100
AcDbEntity
  8
1
  6
CONTINUOUS
370
50
 62
4
100
AcDbLine
 10
92.28044899999999
 20
10.428993
 30
0.0
 11
92.875946
 21
10.690865
 31
0.0
  0
LINE
  5
9D3
330
1F
100
AcDbEntity
  8
1
  6
CONTINUOUS
370
50
 62
4
100
AcDbLine
 10
89.971458
 20
7.650639999999999
 30
0.0
 11
90.675827
 21
7.966112
 31
0.0
  0
LINE
  5
9D4
330
1F
100
AcDbEntity
  8
1
  6
CONTINUOUS
370
50
 62
4
100
AcDbLine
 10
69.588036
 20
1.390058
 30
0.0
 11
70.060051
 21
1.602623
 31
0.0
  0
LINE
  5
9D5
330
1F
100
AcDbEntity
  8
1
  6
CONTINUOUS
370
50
 62
4
100
AcDbLine
 10
100.312515
 20
-10.040684
 30
0.0
 11
100.354073
 21
-10.021789
 31
0.0
  0
LINE
  5
9D6
330
1F
100
AcDbEntity
  8
1
  6
CONTINUOUS
370
50
 62
4
100
AcDbLine
 10
57.93465399999999
 20
10.381132
 30
0.0
 11
58.00864
 21
10.414812
 31
0.0
  0
LINE
  5
9D7
330
1F
100
AcDbEntity
  8
1
  6
CONTINUOUS
370
50
 62
4
100
AcDbLine
 10
91.68480699999999
 20
10.151068
 30
0.0
 11
92.28044899999999
 21
10.428993
 31
0.0
  0
LINE
  5
9D8
330
1F
100
AcDbEntity
  8
1
  6
CONTINUOUS
370
50
 62
4
100
AcDbLine
 10
68.79671499999999
 20
-8.861927999999999
 30
0.0
 11
69.345322
 21
-8.603608
 31
0.0
  0
LINE
  5
9D9
330
1F
100
AcDbEntity
  8
1
  6
CONTINUOUS
370
50
 62
4
100
AcDbLine
 10
89.26709
 20
7.315310999999999
 30
0.0
 11
89.971458
 21
7.650639999999999
 31
0.0
  0
LINE
  5
9DA
330
1F
100
AcDbEntity
  8
1
  6
CONTINUOUS
370
50
 62
4
100
AcDbLine
 10
69.121414
 20
1.165516
 30
0.0
 11
69.588036
 21
1.390058
 31
0.0
  0
LINE
  5
9DB
330
1F
100
AcDbEntity
  8
1
  6
CONTINUOUS
370
50
 62
4
100
AcDbLine
 10
71.83292399999999
 20
3.651314
 30
0.0
 11
72.071556
 21
3.767426
 31
0.0
  0
LINE
  5
9DC
330
1F
100
AcDbEntity
  8
1
  6
CONTINUOUS
370
50
 62
4
100
AcDbLine
 10
98.495682
 20
-11.126316
 30
0.0
 11
98.596436
 21
-11.077044
 31
0.0
  0
LINE
  5
9DD
330
1F
100
AcDbEntity
  8
1
  6
CONTINUOUS
370
50
 62
4
100
AcDbLine
 10
91.089981
 20
9.857389
 30
0.0
 11
91.68480699999999
 21
10.151068
 31
0.0
  0
LINE
  5
9DE
330
1F
100
AcDbEntity
  8
1
  6
CONTINUOUS
370
50
 62
4
100
AcDbLine
 10
65.520119
 20
-11.909139
 30
0.0
 11
65.669006
 21
-11.835122
 31
0.0
  0
LINE
  5
9DF
330
1F
100
AcDbEntity
  8
1
  6
CONTINUOUS
370
50
 62
4
100
AcDbLine
 10
88.562721
 20
6.959524999999999
 30
0.0
 11
89.26709
 21
7.315310999999999
 31
0.0
  0
LINE
  5
9E0
330
1F
100
AcDbEntity
  8
1
  6
CONTINUOUS
370
50
 62
4
100
AcDbLine
 10
98.995392
 20
-11.865987
 30
0.0
 11
99.184044
 21
-11.769924
 31
0.0
  0
LINE
  5
9E1
330
1F
100
AcDbEntity
  8
1
  6
CONTINUOUS
370
50
 62
4
100
AcDbLine
 10
68.660339
 20
0.928979
 30
0.0
 11
69.121414
 21
1.165516
 31
0.0
  0
LINE
  5
9E2
330
1F
100
AcDbEntity
  8
1
  6
CONTINUOUS
370
50
 62
4
100
AcDbLine
 10
90.49691
 20
9.548257
 30
0.0
 11
91.089981
 21
9.857389
 31
0.0
  0
LINE
  5
9E3
330
1F
100
AcDbEntity
  8
1
  6
CONTINUOUS
370
50
 62
4
100
AcDbLine
 10
87.85835999999999
 20
6.582635
 30
0.0
 11
88.562721
 21
6.959524999999999
 31
0.0
  0
LINE
  5
9E4
330
1F
100
AcDbEntity
  8
1
  6
CONTINUOUS
370
50
 62
4
100
AcDbLine
 10
68.43107599999999
 20
0.805118
 30
0.0
 11
68.660339
 21
0.928979
 31
0.0
  0
LINE
  5
9E5
330
1F
100
AcDbEntity
  8
1
  6
CONTINUOUS
370
50
 62
4
100
AcDbLine
 10
57.86644
 20
10.344235
 30
0.0
 11
57.93465399999999
 21
10.381132
 31
0.0
  0
LINE
  5
9E6
330
1F
100
AcDbEntity
  8
1
  6
CONTINUOUS
370
50
 62
4
100
AcDbLine
 10
89.90555599999999
 20
9.223431999999999
 30
0.0
 11
90.49691
 21
9.548257
 31
0.0
  0
LINE
  5
9E7
330
1F
100
AcDbEntity
  8
1
  6
CONTINUOUS
370
50
 62
4
100
AcDbLine
 10
98.596436
 20
-11.077044
 30
0.0
 11
98.694054
 21
-11.023149
 31
0.0
  0
LINE
  5
9E8
330
1F
100
AcDbEntity
  8
1
  6
CONTINUOUS
370
50
 62
4
100
AcDbLine
 10
100.354073
 20
-10.021789
 30
0.0
 11
100.394737
 21
-9.999262
 31
0.0
  0
LINE
  5
9E9
330
1F
100
AcDbEntity
  8
1
  6
CONTINUOUS
370
50
 62
4
100
AcDbLine
 10
68.20541399999999
 20
0.678163
 30
0.0
 11
68.43107599999999
 21
0.805118
 31
0.0
  0
LINE
  5
9EA
330
1F
100
AcDbEntity
  8
1
  6
CONTINUOUS
370
50
 62
4
100
AcDbLine
 10
72.071556
 20
3.767426
 30
0.0
 11
72.288956
 21
3.89027
 31
0.0
  0
LINE
  5
9EB
330
1F
100
AcDbEntity
  8
1
  6
CONTINUOUS
370
50
 62
4
100
AcDbLine
 10
89.31579599999999
 20
8.882615
 30
0.0
 11
89.90555599999999
 21
9.223431999999999
 31
0.0
  0
LINE
  5
9EC
330
1F
100
AcDbEntity
  8
1
  6
CONTINUOUS
370
50
 62
4
100
AcDbLine
 10
68.264877
 20
-9.171866999999999
 30
0.0
 11
68.79671499999999
 21
-8.861927999999999
 31
0.0
  0
LINE
  5
9ED
330
1F
100
AcDbEntity
  8
1
  6
CONTINUOUS
370
50
 62
4
100
AcDbLine
 10
67.983437
 20
0.548208
 30
0.0
 11
68.20541399999999
 21
0.678163
 31
0.0
  0
LINE
  5
9EE
330
1F
100
AcDbEntity
  8
1
  6
CONTINUOUS
370
50
 62
4
100
AcDbLine
 10
95.048363
 20
6.240123
 30
0.0
 11
95.161987
 21
6.30688
 31
0.0
  0
LINE
  5
9EF
330
1F
100
AcDbEntity
  8
1
  6
CONTINUOUS
370
50
 62
4
100
AcDbLine
 10
99.184044
 20
-11.769924
 30
0.0
 11
99.36870599999999
 21
-11.65906
 31
0.0
  0
LINE
  5
9F0
330
1F
100
AcDbEntity
  8
1
  6
CONTINUOUS
370
50
 62
4
100
AcDbLine
 10
88.728287
 20
8.525955999999999
 30
0.0
 11
89.31579599999999
 21
8.882615
 31
0.0
  0
LINE
  5
9F1
330
1F
100
AcDbEntity
  8
1
  6
CONTINUOUS
370
50
 62
4
100
AcDbLine
 10
67.765236
 20
0.415347
 30
0.0
 11
67.983437
 21
0.548208
 31
0.0
  0
LINE
  5
9F2
330
1F
100
AcDbEntity
  8
1
  6
CONTINUOUS
370
50
 62
4
100
AcDbLine
 10
98.694054
 20
-11.023149
 30
0.0
 11
98.78849
 21
-10.965039
 31
0.0
  0
LINE
  5
9F3
330
1F
100
AcDbEntity
  8
1
  6
CONTINUOUS
370
50
 62
4
100
AcDbLine
 10
67.55090299999999
 20
0.279674
 30
0.0
 11
67.765236
 21
0.415347
 31
0.0
  0
LINE
  5
9F4
330
1F
100
AcDbEntity
  8
1
  6
CONTINUOUS
370
50
 62
4
100
AcDbLine
 10
88.145241
 20
8.154487999999999
 30
0.0
 11
88.728287
 21
8.525955999999999
 31
0.0
  0
LINE
  5
9F5
330
1F
100
AcDbEntity
  8
1
  6
CONTINUOUS
370
50
 62
4
100
AcDbLine
 10
57.804195
 20
10.304143
 30
0.0
 11
57.86644
 21
10.344235
 31
0.0
  0
LINE
  5
9F6
330
1F
100
AcDbEntity
  8
1
  6
CONTINUOUS
370
50
 62
4
100
AcDbLine
 10
96.137436
 20
6.306601
 30
0.0
 11
96.24576599999999
 21
6.377556999999999
 31
0.0
  0
LINE
  5
9F7
330
1F
100
AcDbEntity
  8
1
  6
CONTINUOUS
370
50
 62
4
100
AcDbLine
 10
72.288956
 20
3.89027
 30
0.0
 11
72.484192
 21
4.01864
 31
0.0
  0
LINE
  5
9F8
330
1F
100
AcDbEntity
  8
1
  6
CONTINUOUS
370
50
 62
4
100
AcDbLine
 10
67.340508
 20
0.141284
 30
0.0
 11
67.55090299999999
 21
0.279674
 31
0.0
  0
LINE
  5
9F9
330
1F
100
AcDbEntity
  8
1
  6
CONTINUOUS
370
50
 62
4
100
AcDbLine
 10
100.394737
 20
-9.999262
 30
0.0
 11
100.435173
 21
-9.972591999999999
 31
0.0
  0
LINE
  5
9FA
330
1F
100
AcDbEntity
  8
1
  6
CONTINUOUS
370
50
 62
4
100
AcDbLine
 10
87.579323
 20
7.776691
 30
0.0
 11
88.145241
 21
8.154487999999999
 31
0.0
  0
LINE
  5
9FB
330
1F
100
AcDbEntity
  8
1
  6
CONTINUOUS
370
50
 62
4
100
AcDbLine
 10
98.78849
 20
-10.965039
 30
0.0
 11
98.879707
 21
-10.903115
 31
0.0
  0
LINE
  5
9FC
330
1F
100
AcDbEntity
  8
1
  6
CONTINUOUS
370
50
 62
4
100
AcDbLine
 10
67.134346
 20
0.0
 30
0.0
 11
67.340508
 21
0.141284
 31
0.0
  0
LINE
  5
9FD
330
1F
100
AcDbEntity
  8
1
  6
CONTINUOUS
370
50
 62
4
100
AcDbLine
 10
87.016846
 20
7.388933
 30
0.0
 11
87.579323
 21
7.776691
 31
0.0
  0
LINE
  5
9FE
330
1F
100
AcDbEntity
  8
1
  6
CONTINUOUS
370
50
 62
4
100
AcDbLine
 10
99.36870599999999
 20
-11.65906
 30
0.0
 11
99.54873699999999
 21
-11.533258
 31
0.0
  0
LINE
  5
9FF
330
1F
100
AcDbEntity
  8
1
  6
CONTINUOUS
370
50
 62
4
100
AcDbLine
 10
86.449455
 20
6.990659
 30
0.0
 11
87.016846
 21
7.388933
 31
0.0
  0
LINE
  5
A00
330
1F
100
AcDbEntity
  8
1
  6
CONTINUOUS
370
50
 62
4
100
AcDbLine
 10
94.94107799999999
 20
6.164625
 30
0.0
 11
95.048363
 21
6.240123
 31
0.0
  0
LINE
  5
A01
330
1F
100
AcDbEntity
  8
1
  6
CONTINUOUS
370
50
 62
4
100
AcDbLine
 10
67.758133
 20
-9.529081999999999
 30
0.0
 11
68.264877
 21
-9.171866999999999
 31
0.0
  0
LINE
  5
A02
330
1F
100
AcDbEntity
  8
1
  6
CONTINUOUS
370
50
 62
4
100
AcDbLine
 10
66.896851
 20
-0.168726
 30
0.0
 11
67.134346
 21
0.0
 31
0.0
  0
LINE
  5
A03
330
1F
100
AcDbEntity
  8
1
  6
CONTINUOUS
370
50
 62
4
100
AcDbLine
 10
85.879341
 20
6.584257
 30
0.0
 11
86.449455
 21
6.990659
 31
0.0
  0
LINE
  5
A04
330
1F
100
AcDbEntity
  8
1
  6
CONTINUOUS
370
50
 62
4
100
AcDbLine
 10
98.879707
 20
-10.903115
 30
0.0
 11
98.967659
 21
-10.837781
 31
0.0
  0
LINE
  5
A05
330
1F
100
AcDbEntity
  8
1
  6
CONTINUOUS
370
50
 62
4
100
AcDbLine
 10
66.665375
 20
-0.341063
 30
0.0
 11
66.896851
 21
-0.168726
 31
0.0
  0
LINE
  5
A06
330
1F
100
AcDbEntity
  8
1
  6
CONTINUOUS
370
50
 62
4
100
AcDbLine
 10
100.435173
 20
-9.972591999999999
 30
0.0
 11
100.476494
 21
-9.940756
 31
0.0
  0
LINE
  5
A07
330
1F
100
AcDbEntity
  8
1
  6
CONTINUOUS
370
50
 62
4
100
AcDbLine
 10
72.484192
 20
4.01864
 30
0.0
 11
72.65645599999999
 21
4.151403
 31
0.0
  0
LINE
  5
A08
330
1F
100
AcDbEntity
  8
1
  6
CONTINUOUS
370
50
 62
4
100
AcDbLine
 10
57.748161
 20
10.260912
 30
0.0
 11
57.804195
 21
10.304143
 31
0.0
  0
LINE
  5
A09
330
1F
100
AcDbEntity
  8
1
  6
CONTINUOUS
370
50
 62
4
100
AcDbLine
 10
66.43988
 20
-0.5165879999999999
 30
0.0
 11
66.665375
 21
-0.341063
 31
0.0
  0
LINE
  5
A0A
330
1F
100
AcDbEntity
  8
1
  6
CONTINUOUS
370
50
 62
4
100
AcDbLine
 10
65.669006
 20
-11.835122
 30
0.0
 11
65.791992
 21
-11.737345
 31
0.0
  0
LINE
  5
A0B
330
1F
100
AcDbEntity
  8
1
  6
CONTINUOUS
370
50
 62
4
100
AcDbLine
 10
99.54873699999999
 20
-11.533258
 30
0.0
 11
99.723
 21
-11.392739
 31
0.0
  0
LINE
  5
A0C
330
1F
100
AcDbEntity
  8
1
  6
CONTINUOUS
370
50
 62
4
100
AcDbLine
 10
98.967659
 20
-10.837781
 30
0.0
 11
99.05251299999999
 21
-10.76926
 31
0.0
  0
LINE
  5
A0D
330
1F
100
AcDbEntity
  8
1
  6
CONTINUOUS
370
50
 62
4
100
AcDbLine
 10
66.220497
 20
-0.695147
 30
0.0
 11
66.43988
 21
-0.5165879999999999
 31
0.0
  0
LINE
  5
A0E
330
1F
100
AcDbEntity
  8
1
  6
CONTINUOUS
370
50
 62
4
100
AcDbLine
 10
94.840508
 20
6.080212
 30
0.0
 11
94.94107799999999
 21
6.164625
 31
0.0
  0
LINE
  5
A0F
330
1F
100
AcDbEntity
  8
1
  6
CONTINUOUS
370
50
 62
4
100
AcDbLine
 10
67.275711
 20
-9.934623
 30
0.0
 11
67.758133
 21
-9.529081999999999
 31
0.0
  0
LINE
  5
A10
330
1F
100
AcDbEntity
  8
1
  6
CONTINUOUS
370
50
 62
4
100
AcDbLine
 10
66.007378
 20
-0.876587
 30
0.0
 11
66.220497
 21
-0.695147
 31
0.0
  0
LINE
  5
A11
330
1F
100
AcDbEntity
  8
1
  6
CONTINUOUS
370
50
 62
4
100
AcDbLine
 10
99.05251299999999
 20
-10.76926
 30
0.0
 11
99.134407
 21
-10.697775
 31
0.0
  0
LINE
  5
A12
330
1F
100
AcDbEntity
  8
1
  6
CONTINUOUS
370
50
 62
4
100
AcDbLine
 10
100.476494
 20
-9.940756
 30
0.0
 11
100.518318
 21
-9.903561
 31
0.0
  0
LINE
  5
A13
330
1F
100
AcDbEntity
  8
1
  6
CONTINUOUS
370
50
 62
4
100
AcDbLine
 10
65.800652
 20
-1.060754
 30
0.0
 11
66.007378
 21
-0.876587
 31
0.0
  0
LINE
  5
A14
330
1F
100
AcDbEntity
  8
1
  6
CONTINUOUS
370
50
 62
4
100
AcDbLine
 10
96.24576599999999
 20
6.377556999999999
 30
0.0
 11
96.341591
 21
6.465418
 31
0.0
  0
LINE
  5
A15
330
1F
100
AcDbEntity
  8
1
  6
CONTINUOUS
370
50
 62
4
100
AcDbLine
 10
72.65645599999999
 20
4.151403
 30
0.0
 11
72.80618299999999
 21
4.288689
 31
0.0
  0
LINE
  5
A16
330
1F
100
AcDbEntity
  8
1
  6
CONTINUOUS
370
50
 62
4
100
AcDbLine
 10
99.723
 20
-11.392739
 30
0.0
 11
99.89061
 21
-11.237567
 31
0.0
  0
LINE
  5
A17
330
1F
100
AcDbEntity
  8
1
  6
CONTINUOUS
370
50
 62
4
100
AcDbLine
 10
57.699062
 20
10.215128
 30
0.0
 11
57.748161
 21
10.260912
 31
0.0
  0
LINE
  5
A18
330
1F
100
AcDbEntity
  8
1
  6
CONTINUOUS
370
50
 62
4
100
AcDbLine
 10
65.600456
 20
-1.247495
 30
0.0
 11
65.800652
 21
-1.060754
 31
0.0
  0
LINE
  5
A19
330
1F
100
AcDbEntity
  8
1
  6
CONTINUOUS
370
50
 62
4
100
AcDbLine
 10
99.134407
 20
-10.697775
 30
0.0
 11
99.213348
 21
-10.623654
 31
0.0
  0
LINE
  5
A1A
330
1F
100
AcDbEntity
  8
1
  6
CONTINUOUS
370
50
 62
4
100
AcDbLine
 10
65.406944
 20
-1.436657
 30
0.0
 11
65.600456
 21
-1.247495
 31
0.0
  0
LINE
  5
A1B
330
1F
100
AcDbEntity
  8
1
  6
CONTINUOUS
370
50
 62
4
100
AcDbLine
 10
66.82553899999999
 20
-10.382281
 30
0.0
 11
67.275711
 21
-9.934623
 31
0.0
  0
LINE
  5
A1C
330
1F
100
AcDbEntity
  8
1
  6
CONTINUOUS
370
50
 62
4
100
AcDbLine
 10
94.74703199999999
 20
5.986711
 30
0.0
 11
94.840508
 21
6.080212
 31
0.0
  0
LINE
  5
A1D
330
1F
100
AcDbEntity
  8
1
  6
CONTINUOUS
370
50
 62
4
100
AcDbLine
 10
99.213348
 20
-10.623654
 30
0.0
 11
99.289322
 21
-10.547234
 31
0.0
  0
LINE
  5
A1E
330
1F
100
AcDbEntity
  8
1
  6
CONTINUOUS
370
50
 62
4
100
AcDbLine
 10
100.518318
 20
-9.903561
 30
0.0
 11
100.560257
 21
-9.860833
 31
0.0
  0
LINE
  5
A1F
330
1F
100
AcDbEntity
  8
1
  6
CONTINUOUS
370
50
 62
4
100
AcDbLine
 10
65.220299
 20
-1.628038
 30
0.0
 11
65.406944
 21
-1.436657
 31
0.0
  0
LINE
  5
A20
330
1F
100
AcDbEntity
  8
1
  6
CONTINUOUS
370
50
 62
4
100
AcDbLine
 10
99.89061
 20
-11.237567
 30
0.0
 11
99.989418
 21
-11.134823
 31
0.0
  0
LINE
  5
A21
330
1F
100
AcDbEntity
  8
1
  6
CONTINUOUS
370
50
 62
4
100
AcDbLine
 10
99.289322
 20
-10.547234
 30
0.0
 11
99.36234999999999
 21
-10.468843
 31
0.0
  0
LINE
  5
A22
330
1F
100
AcDbEntity
  8
1
  6
CONTINUOUS
370
50
 62
4
100
AcDbLine
 10
65.04171
 20
-1.820354
 30
0.0
 11
65.220299
 21
-1.628038
 31
0.0
  0
LINE
  5
A23
330
1F
100
AcDbEntity
  8
1
  6
CONTINUOUS
370
50
 62
4
100
AcDbLine
 10
99.989418
 20
-11.134823
 30
0.0
 11
100.087547
 21
-11.024042
 31
0.0
  0
LINE
  5
A24
330
1F
100
AcDbEntity
  8
1
  6
CONTINUOUS
370
50
 62
4
100
AcDbLine
 10
72.80618299999999
 20
4.288689
 30
0.0
 11
72.939224
 21
4.4391
 31
0.0
  0
LINE
  5
A25
330
1F
100
AcDbEntity
  8
1
  6
CONTINUOUS
370
50
 62
4
100
AcDbLine
 10
64.871689
 20
-2.012952
 30
0.0
 11
65.04171
 21
-1.820354
 31
0.0
  0
LINE
  5
A26
330
1F
100
AcDbEntity
  8
1
  6
CONTINUOUS
370
50
 62
4
100
AcDbLine
 10
57.656982
 20
10.16709
 30
0.0
 11
57.699062
 21
10.215128
 31
0.0
  0
LINE
  5
A27
330
1F
100
AcDbEntity
  8
1
  6
CONTINUOUS
370
50
 62
4
100
AcDbLine
 10
99.36234999999999
 20
-10.468843
 30
0.0
 11
99.432419
 21
-10.388817
 31
0.0
  0
LINE
  5
A28
330
1F
100
AcDbEntity
  8
1
  6
CONTINUOUS
370
50
 62
4
100
AcDbLine
 10
100.560257
 20
-9.860833
 30
0.0
 11
100.601891
 21
-9.8124
 31
0.0
  0
LINE
  5
A29
330
1F
100
AcDbEntity
  8
1
  6
CONTINUOUS
370
50
 62
4
100
AcDbLine
 10
66.407066
 20
-10.872976
 30
0.0
 11
66.82553899999999
 21
-10.382281
 31
0.0
  0
LINE
  5
A2A
330
1F
100
AcDbEntity
  8
1
  6
CONTINUOUS
370
50
 62
4
100
AcDbLine
 10
64.710274
 20
-2.20566
 30
0.0
 11
64.871689
 21
-2.012952
 31
0.0
  0
LINE
  5
A2B
330
1F
100
AcDbEntity
  8
1
  6
CONTINUOUS
370
50
 62
4
100
AcDbLine
 10
94.661018
 20
5.883947999999999
 30
0.0
 11
94.74703199999999
 21
5.986711
 31
0.0
  0
LINE
  5
A2C
330
1F
100
AcDbEntity
  8
1
  6
CONTINUOUS
370
50
 62
4
100
AcDbLine
 10
99.432419
 20
-10.388817
 30
0.0
 11
99.499527
 21
-10.307487
 31
0.0
  0
LINE
  5
A2D
330
1F
100
AcDbEntity
  8
1
  6
CONTINUOUS
370
50
 62
4
100
AcDbLine
 10
100.087547
 20
-11.024042
 30
0.0
 11
100.183922
 21
-10.905909
 31
0.0
  0
LINE
  5
A2E
330
1F
100
AcDbEntity
  8
1
  6
CONTINUOUS
370
50
 62
4
100
AcDbLine
 10
96.341591
 20
6.465418
 30
0.0
 11
96.425163
 21
6.569281999999999
 31
0.0
  0
LINE
  5
A2F
330
1F
100
AcDbEntity
  8
1
  6
CONTINUOUS
370
50
 62
4
100
AcDbLine
 10
64.557503
 20
-2.398307
 30
0.0
 11
64.710274
 21
-2.20566
 31
0.0
  0
LINE
  5
A30
330
1F
100
AcDbEntity
  8
1
  6
CONTINUOUS
370
50
 62
4
100
AcDbLine
 10
65.791992
 20
-11.737345
 30
0.0
 11
65.887909
 21
-11.61595
 31
0.0
  0
LINE
  5
A31
330
1F
100
AcDbEntity
  8
1
  6
CONTINUOUS
370
50
 62
4
100
AcDbLine
 10
99.499527
 20
-10.307487
 30
0.0
 11
99.563705
 21
-10.225151
 31
0.0
  0
LINE
  5
A32
330
1F
100
AcDbEntity
  8
1
  6
CONTINUOUS
370
50
 62
4
100
AcDbLine
 10
66.324455
 20
-10.980042
 30
0.0
 11
66.407066
 21
-10.872976
 31
0.0
  0
LINE
  5
A33
330
1F
100
AcDbEntity
  8
1
  6
CONTINUOUS
370
50
 62
4
100
AcDbLine
 10
73.048073
 20
4.602739
 30
0.0
 11
73.190514
 21
4.791433
 31
0.0
  0
LINE
  5
A34
330
1F
100
AcDbEntity
  8
1
  6
CONTINUOUS
370
50
 62
4
100
AcDbLine
 10
100.601891
 20
-9.8124
 30
0.0
 11
100.642838
 21
-9.758099999999999
 31
0.0
  0
LINE
  5
A35
330
1F
100
AcDbEntity
  8
1
  6
CONTINUOUS
370
50
 62
4
100
AcDbLine
 10
100.183922
 20
-10.905909
 30
0.0
 11
100.27742
 21
-10.781166
 31
0.0
  0
LINE
  5
A36
330
1F
100
AcDbEntity
  8
1
  6
CONTINUOUS
370
50
 62
4
100
AcDbLine
 10
64.413414
 20
-2.590719
 30
0.0
 11
64.557503
 21
-2.398307
 31
0.0
  0
LINE
  5
A37
330
1F
100
AcDbEntity
  8
1
  6
CONTINUOUS
370
50
 62
4
100
AcDbLine
 10
73.190514
 20
4.791433
 30
0.0
 11
73.330727
 21
4.979798
 31
0.0
  0
LINE
  5
A38
330
1F
100
AcDbEntity
  8
1
  6
CONTINUOUS
370
50
 62
4
100
AcDbLine
 10
99.563705
 20
-10.225151
 30
0.0
 11
99.62612899999999
 21
-10.140557
 31
0.0
  0
LINE
  5
A39
330
1F
100
AcDbEntity
  8
1
  6
CONTINUOUS
370
50
 62
4
100
AcDbLine
 10
73.330727
 20
4.979798
 30
0.0
 11
73.46876499999999
 21
5.167812
 31
0.0
  0
LINE
  5
A3A
330
1F
100
AcDbEntity
  8
1
  6
CONTINUOUS
370
50
 62
4
100
AcDbLine
 10
73.46876499999999
 20
5.167812
 30
0.0
 11
73.60466
 21
5.355455
 31
0.0
  0
LINE
  5
A3B
330
1F
100
AcDbEntity
  8
1
  6
CONTINUOUS
370
50
 62
4
100
AcDbLine
 10
73.60466
 20
5.355455
 30
0.0
 11
73.738472
 21
5.542704
 31
0.0
  0
LINE
  5
A3C
330
1F
100
AcDbEntity
  8
1
  6
CONTINUOUS
370
50
 62
4
100
AcDbLine
 10
73.738472
 20
5.542704
 30
0.0
 11
73.870232
 21
5.729537
 31
0.0
  0
LINE
  5
A3D
330
1F
100
AcDbEntity
  8
1
  6
CONTINUOUS
370
50
 62
4
100
AcDbLine
 10
64.278038
 20
-2.782723
 30
0.0
 11
64.413414
 21
-2.590719
 31
0.0
  0
LINE
  5
A3E
330
1F
100
AcDbEntity
  8
1
  6
CONTINUOUS
370
50
 62
4
100
AcDbLine
 10
57.621769
 20
10.116929
 30
0.0
 11
57.656982
 21
10.16709
 31
0.0
  0
LINE
  5
A3F
330
1F
100
AcDbEntity
  8
1
  6
CONTINUOUS
370
50
 62
4
100
AcDbLine
 10
99.62612899999999
 20
-10.140557
 30
0.0
 11
99.68738599999999
 21
-10.052938
 31
0.0
  0
LINE
  5
A40
330
1F
100
AcDbEntity
  8
1
  6
CONTINUOUS
370
50
 62
4
100
AcDbLine
 10
94.58286299999999
 20
5.77175
 30
0.0
 11
94.661018
 21
5.883947999999999
 31
0.0
  0
LINE
  5
A41
330
1F
100
AcDbEntity
  8
1
  6
CONTINUOUS
370
50
 62
4
100
AcDbLine
 10
73.870232
 20
5.729537
 30
0.0
 11
74.0
 21
5.915932
 31
0.0
  0
LINE
  5
A42
330
1F
100
AcDbEntity
  8
1
  6
CONTINUOUS
370
50
 62
4
100
AcDbLine
 10
65.887695
 20
-11.616316
 30
0.0
 11
66.324455
 21
-10.980042
 31
0.0
  0
LINE
  5
A43
330
1F
100
AcDbEntity
  8
1
  6
CONTINUOUS
370
50
 62
4
100
AcDbLine
 10
100.27742
 20
-10.781166
 30
0.0
 11
100.366905
 21
-10.65056
 31
0.0
  0
LINE
  5
A44
330
1F
100
AcDbEntity
  8
1
  6
CONTINUOUS
370
50
 62
4
100
AcDbLine
 10
72.939224
 20
4.4391
 30
0.0
 11
73.048073
 21
4.602739
 31
0.0
  0
LINE
  5
A45
330
1F
100
AcDbEntity
  8
1
  6
CONTINUOUS
370
50
 62
4
100
AcDbLine
 10
100.642838
 20
-9.758099999999999
 30
0.0
 11
100.682716
 21
-9.698055
 31
0.0
  0
LINE
  5
A46
330
1F
100
AcDbEntity
  8
1
  6
CONTINUOUS
370
50
 62
4
100
AcDbLine
 10
99.68738599999999
 20
-10.052938
 30
0.0
 11
99.74748199999999
 21
-9.962284
 31
0.0
  0
LINE
  5
A47
330
1F
100
AcDbEntity
  8
1
  6
CONTINUOUS
370
50
 62
4
100
AcDbLine
 10
64.151428
 20
-2.974148
 30
0.0
 11
64.278038
 21
-2.782723
 31
0.0
  0
LINE
  5
A48
330
1F
100
AcDbEntity
  8
1
  6
CONTINUOUS
370
50
 62
4
100
AcDbLine
 10
100.366905
 20
-10.65056
 30
0.0
 11
100.45134
 21
-10.514916
 31
0.0
  0
LINE
  5
A49
330
1F
100
AcDbEntity
  8
1
  6
CONTINUOUS
370
50
 62
4
100
AcDbLine
 10
64.03359999999999
 20
-3.16482
 30
0.0
 11
64.151428
 21
-2.974148
 31
0.0
  0
LINE
  5
A4A
330
1F
100
AcDbEntity
  8
1
  6
CONTINUOUS
370
50
 62
4
100
AcDbLine
 10
96.425163
 20
6.569281999999999
 30
0.0
 11
96.496735
 21
6.688245999999999
 31
0.0
  0
LINE
  5
A4B
330
1F
100
AcDbEntity
  8
1
  6
CONTINUOUS
370
50
 62
4
100
AcDbLine
 10
100.682716
 20
-9.698055
 30
0.0
 11
100.721199
 21
-9.632610999999999
 31
0.0
  0
LINE
  5
A4C
330
1F
100
AcDbEntity
  8
1
  6
CONTINUOUS
370
50
 62
4
100
AcDbLine
 10
63.92460999999999
 20
-3.354567
 30
0.0
 11
64.03359999999999
 21
-3.16482
 31
0.0
  0
LINE
  5
A4D
330
1F
100
AcDbEntity
  8
1
  6
CONTINUOUS
370
50
 62
4
100
AcDbLine
 10
94.51293199999999
 20
5.649941999999999
 30
0.0
 11
94.58286299999999
 21
5.77175
 31
0.0
  0
LINE
  5
A4E
330
1F
100
AcDbEntity
  8
1
  6
CONTINUOUS
370
50
 62
4
100
AcDbLine
 10
100.45134
 20
-10.514916
 30
0.0
 11
100.530106
 21
-10.375496
 31
0.0
  0
LINE
  5
A4F
330
1F
100
AcDbEntity
  8
1
  6
CONTINUOUS
370
50
 62
4
100
AcDbLine
 10
57.593266
 20
10.064775
 30
0.0
 11
57.621769
 21
10.116929
 31
0.0
  0
LINE
  5
A50
330
1F
100
AcDbEntity
  8
1
  6
CONTINUOUS
370
50
 62
4
100
AcDbLine
 10
63.82449
 20
-3.543216
 30
0.0
 11
63.92460999999999
 21
-3.354567
 31
0.0
  0
LINE
  5
A51
330
1F
100
AcDbEntity
  8
1
  6
CONTINUOUS
370
50
 62
4
100
AcDbLine
 10
100.721199
 20
-9.632610999999999
 30
0.0
 11
100.757942
 21
-9.562116
 31
0.0
  0
LINE
  5
A52
330
1F
100
AcDbEntity
  8
1
  6
CONTINUOUS
370
50
 62
4
100
AcDbLine
 10
100.530106
 20
-10.375496
 30
0.0
 11
100.602745
 21
-10.233707
 31
0.0
  0
LINE
  5
A53
330
1F
100
AcDbEntity
  8
1
  6
CONTINUOUS
370
50
 62
4
100
AcDbLine
 10
63.73262
 20
-3.732053
 30
0.0
 11
63.82449
 21
-3.543216
 31
0.0
  0
LINE
  5
A54
330
1F
100
AcDbEntity
  8
1
  6
CONTINUOUS
370
50
 62
4
100
AcDbLine
 10
65.887909
 20
-11.61595
 30
0.0
 11
65.963326
 21
-11.453365
 31
0.0
  0
LINE
  5
A55
330
1F
100
AcDbEntity
  8
1
  6
CONTINUOUS
370
50
 62
4
100
AcDbLine
 10
100.602745
 20
-10.233707
 30
0.0
 11
100.668808
 21
-10.090959
 31
0.0
  0
LINE
  5
A56
330
1F
100
AcDbEntity
  8
1
  6
CONTINUOUS
370
50
 62
4
100
AcDbLine
 10
100.757942
 20
-9.562116
 30
0.0
 11
100.79261
 21
-9.486917
 31
0.0
  0
LINE
  5
A57
330
1F
100
AcDbEntity
  8
1
  6
CONTINUOUS
370
50
 62
4
100
AcDbLine
 10
96.496735
 20
6.688245999999999
 30
0.0
 11
96.556274
 21
6.820632
 31
0.0
  0
LINE
  5
A58
330
1F
100
AcDbEntity
  8
1
  6
CONTINUOUS
370
50
 62
4
100
AcDbLine
 10
63.64840299999999
 20
-3.923112
 30
0.0
 11
63.73262
 21
-3.732053
 31
0.0
  0
LINE
  5
A59
330
1F
100
AcDbEntity
  8
1
  6
CONTINUOUS
370
50
 62
4
100
AcDbLine
 10
100.668808
 20
-10.090959
 30
0.0
 11
100.727837
 21
-9.948654999999999
 31
0.0
  0
LINE
  5
A5A
330
1F
100
AcDbEntity
  8
1
  6
CONTINUOUS
370
50
 62
4
100
AcDbLine
 10
100.176186
 20
5.031998
 30
0.0
 11
100.256096
 21
5.22558
 31
0.0
  0
LINE
  5
A5B
330
1F
100
AcDbEntity
  8
1
  6
CONTINUOUS
370
50
 62
4
100
AcDbLine
 10
57.571323
 20
10.01076
 30
0.0
 11
57.593266
 21
10.064775
 31
0.0
  0
LINE
  5
A5C
330
1F
100
AcDbEntity
  8
1
  6
CONTINUOUS
370
50
 62
4
100
AcDbLine
 10
100.79261
 20
-9.486917
 30
0.0
 11
100.825577
 21
-9.40554
 31
0.0
  0
LINE
  5
A5D
330
1F
100
AcDbEntity
  8
1
  6
CONTINUOUS
370
50
 62
4
100
AcDbLine
 10
63.572548
 20
-4.116047
 30
0.0
 11
63.64840299999999
 21
-3.923112
 31
0.0
  0
LINE
  5
A5E
330
1F
100
AcDbEntity
  8
1
  6
CONTINUOUS
370
50
 62
4
100
AcDbLine
 10
100.099289
 20
4.826514
 30
0.0
 11
100.176186
 21
5.031998
 31
0.0
  0
LINE
  5
A5F
330
1F
100
AcDbEntity
  8
1
  6
CONTINUOUS
370
50
 62
4
100
AcDbLine
 10
100.727837
 20
-9.948654999999999
 30
0.0
 11
100.781502
 21
-9.802539999999999
 31
0.0
  0
LINE
  5
A60
330
1F
100
AcDbEntity
  8
1
  6
CONTINUOUS
370
50
 62
4
100
AcDbLine
 10
100.825577
 20
-9.40554
 30
0.0
 11
100.858337
 21
-9.312833
 31
0.0
  0
LINE
  5
A61
330
1F
100
AcDbEntity
  8
1
  6
CONTINUOUS
370
50
 62
4
100
AcDbLine
 10
63.50579099999999
 20
-4.310477
 30
0.0
 11
63.572548
 21
-4.116047
 31
0.0
  0
LINE
  5
A62
330
1F
100
AcDbEntity
  8
1
  6
CONTINUOUS
370
50
 62
4
100
AcDbLine
 10
100.025543
 20
4.609429
 30
0.0
 11
100.099289
 21
4.826514
 31
0.0
  0
LINE
  5
A63
330
1F
100
AcDbEntity
  8
1
  6
CONTINUOUS
370
50
 62
4
100
AcDbLine
 10
96.556274
 20
6.820632
 30
0.0
 11
96.60406499999999
 21
6.96474
 31
0.0
  0
LINE
  5
A64
330
1F
100
AcDbEntity
  8
1
  6
CONTINUOUS
370
50
 62
4
100
AcDbLine
 10
100.781502
 20
-9.802539999999999
 30
0.0
 11
100.830986
 21
-9.649022
 31
0.0
  0
LINE
  5
A65
330
1F
100
AcDbEntity
  8
1
  6
CONTINUOUS
370
50
 62
4
100
AcDbLine
 10
99.955109
 20
4.381038999999999
 30
0.0
 11
100.025543
 21
4.609429
 31
0.0
  0
LINE
  5
A66
330
1F
100
AcDbEntity
  8
1
  6
CONTINUOUS
370
50
 62
4
100
AcDbLine
 10
100.858337
 20
-9.312833
 30
0.0
 11
100.889427
 21
-9.210315
 31
0.0
  0
LINE
  5
A67
330
1F
100
AcDbEntity
  8
1
  6
CONTINUOUS
370
50
 62
4
100
AcDbLine
 10
63.448856
 20
-4.506025
 30
0.0
 11
63.50579099999999
 21
-4.310477
 31
0.0
  0
LINE
  5
A68
330
1F
100
AcDbEntity
  8
1
  6
CONTINUOUS
370
50
 62
4
100
AcDbLine
 10
99.888138
 20
4.141643999999999
 30
0.0
 11
99.955109
 21
4.381038999999999
 31
0.0
  0
LINE
  5
A69
330
1F
100
AcDbEntity
  8
1
  6
CONTINUOUS
370
50
 62
4
100
AcDbLine
 10
100.830986
 20
-9.649022
 30
0.0
 11
100.875366
 21
-9.489628999999999
 31
0.0
  0
LINE
  5
A6A
330
1F
100
AcDbEntity
  8
1
  6
CONTINUOUS
370
50
 62
4
100
AcDbLine
 10
57.555695
 20
9.954613
 30
0.0
 11
57.571323
 21
10.01076
 31
0.0
  0
LINE
  5
A6B
330
1F
100
AcDbEntity
  8
1
  6
CONTINUOUS
370
50
 62
4
100
AcDbLine
 10
100.889427
 20
-9.210315
 30
0.0
 11
100.917374
 21
-9.100783999999999
 31
0.0
  0
LINE
  5
A6C
330
1F
100
AcDbEntity
  8
1
  6
CONTINUOUS
370
50
 62
4
100
AcDbLine
 10
99.824829
 20
3.891733
 30
0.0
 11
99.888138
 21
4.141643999999999
 31
0.0
  0
LINE
  5
A6D
330
1F
100
AcDbEntity
  8
1
  6
CONTINUOUS
370
50
 62
4
100
AcDbLine
 10
96.60406499999999
 20
6.96474
 30
0.0
 11
96.640709
 21
7.119406
 31
0.0
  0
LINE
  5
A6E
330
1F
100
AcDbEntity
  8
1
  6
CONTINUOUS
370
50
 62
4
100
AcDbLine
 10
63.40248099999999
 20
-4.70231
 30
0.0
 11
63.448856
 21
-4.506025
 31
0.0
  0
LINE
  5
A6F
330
1F
100
AcDbEntity
  8
1
  6
CONTINUOUS
370
50
 62
4
100
AcDbLine
 10
100.875366
 20
-9.489628999999999
 30
0.0
 11
100.91375
 21
-9.325885
 31
0.0
  0
LINE
  5
A70
330
1F
100
AcDbEntity
  8
1
  6
CONTINUOUS
370
50
 62
4
100
AcDbLine
 10
99.76548799999999
 20
3.632378
 30
0.0
 11
99.824829
 21
3.891733
 31
0.0
  0
LINE
  5
A71
330
1F
100
AcDbEntity
  8
1
  6
CONTINUOUS
370
50
 62
4
100
AcDbLine
 10
65.963326
 20
-11.453365
 30
0.0
 11
66.006935
 21
-11.262274
 31
0.0
  0
LINE
  5
A72
330
1F
100
AcDbEntity
  8
1
  6
CONTINUOUS
370
50
 62
4
100
AcDbLine
 10
99.50192299999999
 20
2.189586
 30
0.0
 11
99.570381
 21
2.509974
 31
0.0
  0
LINE
  5
A73
330
1F
100
AcDbEntity
  8
1
  6
CONTINUOUS
370
50
 62
4
100
AcDbLine
 10
100.917374
 20
-9.100783999999999
 30
0.0
 11
100.941162
 21
-8.988461
 31
0.0
  0
LINE
  5
A74
330
1F
100
AcDbEntity
  8
1
  6
CONTINUOUS
370
50
 62
4
100
AcDbLine
 10
99.710251
 20
3.364083
 30
0.0
 11
99.76548799999999
 21
3.632378
 31
0.0
  0
LINE
  5
A75
330
1F
100
AcDbEntity
  8
1
  6
CONTINUOUS
370
50
 62
4
100
AcDbLine
 10
99.43692
 20
1.862378
 30
0.0
 11
99.50192299999999
 21
2.189586
 31
0.0
  0
LINE
  5
A76
330
1F
100
AcDbEntity
  8
1
  6
CONTINUOUS
370
50
 62
4
100
AcDbLine
 10
100.91375
 20
-9.325885
 30
0.0
 11
100.945236
 21
-9.159324
 31
0.0
  0
LINE
  5
A77
330
1F
100
AcDbEntity
  8
1
  6
CONTINUOUS
370
50
 62
4
100
AcDbLine
 10
99.65924799999999
 20
3.08729
 30
0.0
 11
99.710251
 21
3.364083
 31
0.0
  0
LINE
  5
A78
330
1F
100
AcDbEntity
  8
1
  6
CONTINUOUS
370
50
 62
4
100
AcDbLine
 10
99.375473
 20
1.528591
 30
0.0
 11
99.43692
 21
1.862378
 31
0.0
  0
LINE
  5
A79
330
1F
100
AcDbEntity
  8
1
  6
CONTINUOUS
370
50
 62
4
100
AcDbLine
 10
63.36739
 20
-4.898955
 30
0.0
 11
63.40248099999999
 21
-4.70231
 31
0.0
  0
LINE
  5
A7A
330
1F
100
AcDbEntity
  8
1
  6
CONTINUOUS
370
50
 62
4
100
AcDbLine
 10
99.317703
 20
1.188465
 30
0.0
 11
99.375473
 21
1.528591
 31
0.0
  0
LINE
  5
A7B
330
1F
100
AcDbEntity
  8
1
  6
CONTINUOUS
370
50
 62
4
100
AcDbLine
 10
100.941162
 20
-8.988461
 30
0.0
 11
100.961548
 21
-8.868242
 31
0.0
  0
LINE
  5
A7C
330
1F
100
AcDbEntity
  8
1
  6
CONTINUOUS
370
50
 62
4
100
AcDbLine
 10
99.612579
 20
2.80244
 30
0.0
 11
99.65924799999999
 21
3.08729
 31
0.0
  0
LINE
  5
A7D
330
1F
100
AcDbEntity
  8
1
  6
CONTINUOUS
370
50
 62
4
100
AcDbLine
 10
57.546284
 20
9.895835
 30
0.0
 11
57.555695
 21
9.954613
 31
0.0
  0
LINE
  5
A7E
330
1F
100
AcDbEntity
  8
1
  6
CONTINUOUS
370
50
 62
4
100
AcDbLine
 10
96.640709
 20
7.119406
 30
0.0
 11
96.666794
 21
7.283467
 31
0.0
  0
LINE
  5
A7F
330
1F
100
AcDbEntity
  8
1
  6
CONTINUOUS
370
50
 62
4
100
AcDbLine
 10
99.263695
 20
0.84224
 30
0.0
 11
99.317703
 21
1.188465
 31
0.0
  0
LINE
  5
A80
330
1F
100
AcDbEntity
  8
1
  6
CONTINUOUS
370
50
 62
4
100
AcDbLine
 10
100.945236
 20
-9.159324
 30
0.0
 11
100.969452
 21
-8.99162
 31
0.0
  0
LINE
  5
A81
330
1F
100
AcDbEntity
  8
1
  6
CONTINUOUS
370
50
 62
4
100
AcDbLine
 10
99.570381
 20
2.509974
 30
0.0
 11
99.612579
 21
2.80244
 31
0.0
  0
LINE
  5
A82
330
1F
100
AcDbEntity
  8
1
  6
CONTINUOUS
370
50
 62
4
100
AcDbLine
 10
99.21356999999999
 20
0.490157
 30
0.0
 11
99.263695
 21
0.84224
 31
0.0
  0
LINE
  5
A83
330
1F
100
AcDbEntity
  8
1
  6
CONTINUOUS
370
50
 62
4
100
AcDbLine
 10
100.961548
 20
-8.868242
 30
0.0
 11
100.978577
 21
-8.736391
 31
0.0
  0
LINE
  5
A84
330
1F
100
AcDbEntity
  8
1
  6
CONTINUOUS
370
50
 62
4
100
AcDbLine
 10
99.167419
 20
0.132455
 30
0.0
 11
99.21356999999999
 21
0.490157
 31
0.0
  0
LINE
  5
A85
330
1F
100
AcDbEntity
  8
1
  6
CONTINUOUS
370
50
 62
4
100
AcDbLine
 10
63.344357
 20
-5.095333999999999
 30
0.0
 11
63.36739
 21
-4.898955
 31
0.0
  0
LINE
  5
A86
330
1F
100
AcDbEntity
  8
1
  6
CONTINUOUS
370
50
 62
4
100
AcDbLine
 10
99.125366
 20
-0.230624
 30
0.0
 11
99.167419
 21
0.132455
 31
0.0
  0
LINE
  5
A87
330
1F
100
AcDbEntity
  8
1
  6
CONTINUOUS
370
50
 62
4
100
AcDbLine
 10
99.08749399999999
 20
-0.598841
 30
0.0
 11
99.125366
 21
-0.230624
 31
0.0
  0
LINE
  5
A88
330
1F
100
AcDbEntity
  8
1
  6
CONTINUOUS
370
50
 62
4
100
AcDbLine
 10
100.969452
 20
-8.99162
 30
0.0
 11
100.986534
 21
-8.824605
 31
0.0
  0
LINE
  5
A89
330
1F
100
AcDbEntity
  8
1
  6
CONTINUOUS
370
50
 62
4
100
AcDbLine
 10
96.666794
 20
7.283467
 30
0.0
 11
96.682938
 21
7.455761
 31
0.0
  0
LINE
  5
A8A
330
1F
100
AcDbEntity
  8
1
  6
CONTINUOUS
370
50
 62
4
100
AcDbLine
 10
99.05392499999999
 20
-0.9719559999999999
 30
0.0
 11
99.08749399999999
 21
-0.598841
 31
0.0
  0
LINE
  5
A8B
330
1F
100
AcDbEntity
  8
1
  6
CONTINUOUS
370
50
 62
4
100
AcDbLine
 10
100.978577
 20
-8.736391
 30
0.0
 11
100.990692
 21
-8.599904
 31
0.0
  0
LINE
  5
A8C
330
1F
100
AcDbEntity
  8
1
  6
CONTINUOUS
370
50
 62
4
100
AcDbLine
 10
99.02477999999999
 20
-1.349434
 30
0.0
 11
99.05392499999999
 21
-0.9719559999999999
 31
0.0
  0
LINE
  5
A8D
330
1F
100
AcDbEntity
  8
1
  6
CONTINUOUS
370
50
 62
4
100
AcDbLine
 10
99.000259
 20
-1.729428
 30
0.0
 11
99.02477999999999
 21
-1.349434
 31
0.0
  0
LINE
  5
A8E
330
1F
100
AcDbEntity
  8
1
  6
CONTINUOUS
370
50
 62
4
100
AcDbLine
 10
100.986534
 20
-8.824605
 30
0.0
 11
100.996666
 21
-8.660115
 31
0.0
  0
LINE
  5
A8F
330
1F
100
AcDbEntity
  8
1
  6
CONTINUOUS
370
50
 62
4
100
AcDbLine
 10
66.006935
 20
-11.262274
 30
0.0
 11
66.020325
 21
-11.042822
 31
0.0
  0
LINE
  5
A90
330
1F
100
AcDbEntity
  8
1
  6
CONTINUOUS
370
50
 62
4
100
AcDbLine
 10
63.334213
 20
-5.290081
 30
0.0
 11
63.344357
 21
-5.095333999999999
 31
0.0
  0
LINE
  5
A91
330
1F
100
AcDbEntity
  8
1
  6
CONTINUOUS
370
50
 62
4
100
AcDbLine
 10
100.990692
 20
-8.599904
 30
0.0
 11
100.997635
 21
-8.466531
 31
0.0
  0
LINE
  5
A92
330
1F
100
AcDbEntity
  8
1
  6
CONTINUOUS
370
50
 62
4
100
AcDbLine
 10
98.98043799999999
 20
-2.111353
 30
0.0
 11
99.000259
 21
-1.729428
 31
0.0
  0
LINE
  5
A93
330
1F
100
AcDbEntity
  8
1
  6
CONTINUOUS
370
50
 62
4
100
AcDbLine
 10
57.543236
 20
9.83443
 30
0.0
 11
57.546284
 21
9.895835
 31
0.0
  0
LINE
  5
A94
330
1F
100
AcDbEntity
  8
1
  6
CONTINUOUS
370
50
 62
4
100
AcDbLine
 10
98.96534
 20
-2.494849
 30
0.0
 11
98.98043799999999
 21
-2.111353
 31
0.0
  0
LINE
  5
A95
330
1F
100
AcDbEntity
  8
1
  6
CONTINUOUS
370
50
 62
4
100
AcDbLine
 10
96.682938
 20
7.455761
 30
0.0
 11
96.68972
 21
7.635127
 31
0.0
  0
LINE
  5
A96
330
1F
100
AcDbEntity
  8
1
  6
CONTINUOUS
370
50
 62
4
100
AcDbLine
 10
98.95502499999999
 20
-2.879555
 30
0.0
 11
98.96534
 21
-2.494849
 31
0.0
  0
LINE
  5
A97
330
1F
100
AcDbEntity
  8
1
  6
CONTINUOUS
370
50
 62
4
100
AcDbLine
 10
100.996666
 20
-8.660115
 30
0.0
 11
101.0
 21
-8.499984999999999
 31
0.0
  0
LINE
  5
A98
330
1F
100
AcDbEntity
  8
1
  6
CONTINUOUS
370
50
 62
4
100
AcDbLine
 10
100.997635
 20
-8.466531
 30
0.0
 11
101.0
 21
-8.327919
 31
0.0
  0
LINE
  5
A99
330
1F
100
AcDbEntity
  8
1
  6
CONTINUOUS
370
50
 62
4
100
AcDbLine
 10
74.002617
 20
-8.412086
 30
0.0
 11
74.002785
 21
-8.40076
 31
0.0
  0
LINE
  5
A9A
330
1F
100
AcDbEntity
  8
1
  6
CONTINUOUS
370
50
 62
4
100
AcDbLine
 10
74.002617
 20
-8.412089
 30
0.0
 11
74.002785
 21
-8.40066
 31
0.0
  0
LINE
  5
A9B
330
1F
100
AcDbEntity
  8
1
  6
CONTINUOUS
370
50
 62
4
100
AcDbLine
 10
74.00245699999999
 20
8.40091
 30
0.0
 11
74.002617
 21
8.412086
 31
0.0
  0
LINE
  5
A9C
330
1F
100
AcDbEntity
  8
1
  6
CONTINUOUS
370
50
 62
4
100
AcDbLine
 10
74.00245699999999
 20
8.400881
 30
0.0
 11
74.002617
 21
8.412089
 31
0.0
  0
LINE
  5
A9D
330
1F
100
AcDbEntity
  8
1
  6
CONTINUOUS
370
50
 62
4
100
AcDbLine
 10
98.949539
 20
-3.265109
 30
0.0
 11
98.95502499999999
 21
-2.879555
 31
0.0
  0
LINE
  5
A9E
330
1F
100
AcDbEntity
  8
1
  6
CONTINUOUS
370
50
 62
4
100
AcDbLine
 10
74.002296
 20
8.367317
 30
0.0
 11
74.00245699999999
 21
8.40091
 31
0.0
  0
LINE
  5
A9F
330
1F
100
AcDbEntity
  8
1
  6
CONTINUOUS
370
50
 62
4
100
AcDbLine
 10
74.002296
 20
8.367246999999999
 30
0.0
 11
74.00245699999999
 21
8.400881
 31
0.0
  0
LINE
  5
AA0
330
1F
100
AcDbEntity
  8
1
  6
CONTINUOUS
370
50
 62
4
100
AcDbLine
 10
74.002785
 20
-8.40066
 30
0.0
 11
74.002945
 21
-8.366539
 31
0.0
  0
LINE
  5
AA1
330
1F
100
AcDbEntity
  8
1
  6
CONTINUOUS
370
50
 62
4
100
AcDbLine
 10
74.002785
 20
-8.40076
 30
0.0
 11
74.002937
 21
-8.366848
 31
0.0
  0
LINE
  5
AA2
330
1F
100
AcDbEntity
  8
1
  6
CONTINUOUS
370
50
 62
4
100
AcDbLine
 10
74.002136
 20
8.311356
 30
0.0
 11
74.002296
 21
8.367246999999999
 31
0.0
  0
LINE
  5
AA3
330
1F
100
AcDbEntity
  8
1
  6
CONTINUOUS
370
50
 62
4
100
AcDbLine
 10
74.002136
 20
8.311264
 30
0.0
 11
74.002296
 21
8.367317
 31
0.0
  0
LINE
  5
AA4
330
1F
100
AcDbEntity
  8
1
  6
CONTINUOUS
370
50
 62
4
100
AcDbLine
 10
74.002937
 20
-8.366848
 30
0.0
 11
74.003098
 21
-8.310394
 31
0.0
  0
LINE
  5
AA5
330
1F
100
AcDbEntity
  8
1
  6
CONTINUOUS
370
50
 62
4
100
AcDbLine
 10
74.002945
 20
-8.366539
 30
0.0
 11
74.003098
 21
-8.309857
 31
0.0
  0
LINE
  5
AA6
330
1F
100
AcDbEntity
  8
1
  6
CONTINUOUS
370
50
 62
4
100
AcDbLine
 10
74.001976
 20
8.233378
 30
0.0
 11
74.002136
 21
8.311356
 31
0.0
  0
LINE
  5
AA7
330
1F
100
AcDbEntity
  8
1
  6
CONTINUOUS
370
50
 62
4
100
AcDbLine
 10
74.001976
 20
8.232887
 30
0.0
 11
74.002136
 21
8.311264
 31
0.0
  0
LINE
  5
AA8
330
1F
100
AcDbEntity
  8
1
  6
CONTINUOUS
370
50
 62
4
100
AcDbLine
 10
74.003098
 20
-8.309857
 30
0.0
 11
74.003258
 21
-8.230744
 31
0.0
  0
LINE
  5
AA9
330
1F
100
AcDbEntity
  8
1
  6
CONTINUOUS
370
50
 62
4
100
AcDbLine
 10
74.003098
 20
-8.310394
 30
0.0
 11
74.00325
 21
-8.231441
 31
0.0
  0
LINE
  5
AAA
330
1F
100
AcDbEntity
  8
1
  6
CONTINUOUS
370
50
 62
4
100
AcDbLine
 10
74.001808
 20
8.132552
 30
0.0
 11
74.001976
 21
8.232887
 31
0.0
  0
LINE
  5
AAB
330
1F
100
AcDbEntity
  8
1
  6
CONTINUOUS
370
50
 62
4
100
AcDbLine
 10
98.948914
 20
-3.651151
 30
0.0
 11
98.949539
 21
-3.265109
 31
0.0
  0
LINE
  5
AAC
330
1F
100
AcDbEntity
  8
1
  6
CONTINUOUS
370
50
 62
4
100
AcDbLine
 10
74.00181599999999
 20
8.133484
 30
0.0
 11
74.001976
 21
8.233378
 31
0.0
  0
LINE
  5
AAD
330
1F
100
AcDbEntity
  8
1
  6
CONTINUOUS
370
50
 62
4
100
AcDbLine
 10
74.00325
 20
-8.231441
 30
0.0
 11
74.00340299999999
 21
-8.130034
 31
0.0
  0
LINE
  5
AAE
330
1F
100
AcDbEntity
  8
1
  6
CONTINUOUS
370
50
 62
4
100
AcDbLine
 10
74.003258
 20
-8.230744
 30
0.0
 11
74.00341
 21
-8.129329
 31
0.0
  0
LINE
  5
AAF
330
1F
100
AcDbEntity
  8
1
  6
CONTINUOUS
370
50
 62
4
100
AcDbLine
 10
74.001648
 20
8.011841
 30
0.0
 11
74.00181599999999
 21
8.133484
 31
0.0
  0
LINE
  5
AB0
330
1F
100
AcDbEntity
  8
1
  6
CONTINUOUS
370
50
 62
4
100
AcDbLine
 10
74.001648
 20
8.010512
 30
0.0
 11
74.001808
 21
8.132552
 31
0.0
  0
LINE
  5
AB1
330
1F
100
AcDbEntity
  8
1
  6
CONTINUOUS
370
50
 62
4
100
AcDbLine
 10
74.00340299999999
 20
-8.130034
 30
0.0
 11
74.00355499999999
 21
-8.006295999999999
 31
0.0
  0
LINE
  5
AB2
330
1F
100
AcDbEntity
  8
1
  6
CONTINUOUS
370
50
 62
4
100
AcDbLine
 10
74.00341
 20
-8.129329
 30
0.0
 11
74.00355499999999
 21
-8.005741
 31
0.0
  0
LINE
  5
AB3
330
1F
100
AcDbEntity
  8
1
  6
CONTINUOUS
370
50
 62
4
100
AcDbLine
 10
74.001488
 20
7.867019
 30
0.0
 11
74.001648
 21
8.010512
 31
0.0
  0
LINE
  5
AB4
330
1F
100
AcDbEntity
  8
1
  6
CONTINUOUS
370
50
 62
4
100
AcDbLine
 10
74.00149499999999
 20
7.86862
 30
0.0
 11
74.001648
 21
8.011841
 31
0.0
  0
LINE
  5
AB5
330
1F
100
AcDbEntity
  8
1
  6
CONTINUOUS
370
50
 62
4
100
AcDbLine
 10
74.00355499999999
 20
-8.006295999999999
 30
0.0
 11
74.0037
 21
-7.860741
 31
0.0
  0
LINE
  5
AB6
330
1F
100
AcDbEntity
  8
1
  6
CONTINUOUS
370
50
 62
4
100
AcDbLine
 10
74.00355499999999
 20
-8.005741
 30
0.0
 11
74.0037
 21
-7.860109
 31
0.0
  0
LINE
  5
AB7
330
1F
100
AcDbEntity
  8
1
  6
CONTINUOUS
370
50
 62
4
100
AcDbLine
 10
74.001335
 20
7.703990999999999
 30
0.0
 11
74.00149499999999
 21
7.86862
 31
0.0
  0
LINE
  5
AB8
330
1F
100
AcDbEntity
  8
1
  6
CONTINUOUS
370
50
 62
4
100
AcDbLine
 10
74.001335
 20
7.702325999999999
 30
0.0
 11
74.001488
 21
7.867019
 31
0.0
  0
LINE
  5
AB9
330
1F
100
AcDbEntity
  8
1
  6
CONTINUOUS
370
50
 62
4
100
AcDbLine
 10
74.0037
 20
-7.860741
 30
0.0
 11
74.003845
 21
-7.693697999999999
 31
0.0
  0
LINE
  5
ABA
330
1F
100
AcDbEntity
  8
1
  6
CONTINUOUS
370
50
 62
4
100
AcDbLine
 10
74.0037
 20
-7.860109
 30
0.0
 11
74.003845
 21
-7.692577999999999
 31
0.0
  0
LINE
  5
ABB
330
1F
100
AcDbEntity
  8
1
  6
CONTINUOUS
370
50
 62
4
100
AcDbLine
 10
74.001175
 20
7.516686
 30
0.0
 11
74.001335
 21
7.702325999999999
 31
0.0
  0
LINE
  5
ABC
330
1F
100
AcDbEntity
  8
1
  6
CONTINUOUS
370
50
 62
4
100
AcDbLine
 10
74.001175
 20
7.518122
 30
0.0
 11
74.001335
 21
7.703990999999999
 31
0.0
  0
LINE
  5
ABD
330
1F
100
AcDbEntity
  8
1
  6
CONTINUOUS
370
50
 62
4
100
AcDbLine
 10
74.00102199999999
 20
7.310353
 30
0.0
 11
74.001175
 21
7.516686
 31
0.0
  0
LINE
  5
ABE
330
1F
100
AcDbEntity
  8
1
  6
CONTINUOUS
370
50
 62
4
100
AcDbLine
 10
74.00102199999999
 20
7.311484999999999
 30
0.0
 11
74.001175
 21
7.518122
 31
0.0
  0
LINE
  5
ABF
330
1F
100
AcDbEntity
  8
1
  6
CONTINUOUS
370
50
 62
4
100
AcDbLine
 10
74.003845
 20
-7.692577999999999
 30
0.0
 11
74.00398299999999
 21
-7.503871999999999
 31
0.0
  0
LINE
  5
AC0
330
1F
100
AcDbEntity
  8
1
  6
CONTINUOUS
370
50
 62
4
100
AcDbLine
 10
74.003845
 20
-7.693697999999999
 30
0.0
 11
74.003975
 21
-7.505455
 31
0.0
  0
LINE
  5
AC1
330
1F
100
AcDbEntity
  8
1
  6
CONTINUOUS
370
50
 62
4
100
AcDbLine
 10
74.00086999999999
 20
7.084874
 30
0.0
 11
74.00102199999999
 21
7.311484999999999
 31
0.0
  0
LINE
  5
AC2
330
1F
100
AcDbEntity
  8
1
  6
CONTINUOUS
370
50
 62
4
100
AcDbLine
 10
74.00086999999999
 20
7.083577
 30
0.0
 11
74.00102199999999
 21
7.310353
 31
0.0
  0
LINE
  5
AC3
330
1F
100
AcDbEntity
  8
1
  6
CONTINUOUS
370
50
 62
4
100
AcDbLine
 10
74.003975
 20
-7.505455
 30
0.0
 11
74.004105
 21
-7.296298999999999
 31
0.0
  0
LINE
  5
AC4
330
1F
100
AcDbEntity
  8
1
  6
CONTINUOUS
370
50
 62
4
100
AcDbLine
 10
74.000717
 20
6.838693999999999
 30
0.0
 11
74.00086999999999
 21
7.084874
 31
0.0
  0
LINE
  5
AC5
330
1F
100
AcDbEntity
  8
1
  6
CONTINUOUS
370
50
 62
4
100
AcDbLine
 10
74.000717
 20
6.836721
 30
0.0
 11
74.00086999999999
 21
7.083577
 31
0.0
  0
LINE
  5
AC6
330
1F
100
AcDbEntity
  8
1
  6
CONTINUOUS
370
50
 62
4
100
AcDbLine
 10
74.00398299999999
 20
-7.503871999999999
 30
0.0
 11
74.00411199999999
 21
-7.294638
 31
0.0
  0
LINE
  5
AC7
330
1F
100
AcDbEntity
  8
1
  6
CONTINUOUS
370
50
 62
4
100
AcDbLine
 10
74.000565
 20
6.573344
 30
0.0
 11
74.000717
 21
6.838693999999999
 31
0.0
  0
LINE
  5
AC8
330
1F
100
AcDbEntity
  8
1
  6
CONTINUOUS
370
50
 62
4
100
AcDbLine
 10
74.000565
 20
6.570986
 30
0.0
 11
74.000717
 21
6.836721
 31
0.0
  0
LINE
  5
AC9
330
1F
100
AcDbEntity
  8
1
  6
CONTINUOUS
370
50
 62
4
100
AcDbLine
 10
74.004105
 20
-7.296298999999999
 30
0.0
 11
74.004234
 21
-7.066526
 31
0.0
  0
LINE
  5
ACA
330
1F
100
AcDbEntity
  8
1
  6
CONTINUOUS
370
50
 62
4
100
AcDbLine
 10
74.00411199999999
 20
-7.294638
 30
0.0
 11
74.004234
 21
-7.065289
 31
0.0
  0
LINE
  5
ACB
330
1F
100
AcDbEntity
  8
1
  6
CONTINUOUS
370
50
 62
4
100
AcDbLine
 10
74.00041999999999
 20
6.287052999999999
 30
0.0
 11
74.000565
 21
6.570986
 31
0.0
  0
LINE
  5
ACC
330
1F
100
AcDbEntity
  8
1
  6
CONTINUOUS
370
50
 62
4
100
AcDbLine
 10
74.00041999999999
 20
6.289222
 30
0.0
 11
74.000565
 21
6.573344
 31
0.0
  0
LINE
  5
ACD
330
1F
100
AcDbEntity
  8
1
  6
CONTINUOUS
370
50
 62
4
100
AcDbLine
 10
74.000275
 20
5.985431999999999
 30
0.0
 11
74.00041999999999
 21
6.287052999999999
 31
0.0
  0
LINE
  5
ACE
330
1F
100
AcDbEntity
  8
1
  6
CONTINUOUS
370
50
 62
4
100
AcDbLine
 10
74.000275
 20
5.986796
 30
0.0
 11
74.00041999999999
 21
6.289222
 31
0.0
  0
LINE
  5
ACF
330
1F
100
AcDbEntity
  8
1
  6
CONTINUOUS
370
50
 62
4
100
AcDbLine
 10
74.004234
 20
-7.065289
 30
0.0
 11
74.00434899999999
 21
-6.816238999999999
 31
0.0
  0
LINE
  5
AD0
330
1F
100
AcDbEntity
  8
1
  6
CONTINUOUS
370
50
 62
4
100
AcDbLine
 10
74.004234
 20
-7.066526
 30
0.0
 11
74.00434899999999
 21
-6.816898999999999
 31
0.0
  0
LINE
  5
AD1
330
1F
100
AcDbEntity
  8
1
  6
CONTINUOUS
370
50
 62
4
100
AcDbLine
 10
74.000137
 20
5.666634999999999
 30
0.0
 11
74.000275
 21
5.985431999999999
 31
0.0
  0
LINE
  5
AD2
330
1F
100
AcDbEntity
  8
1
  6
CONTINUOUS
370
50
 62
4
100
AcDbLine
 10
74.000137
 20
5.667178
 30
0.0
 11
74.000275
 21
5.986796
 31
0.0
  0
LINE
  5
AD3
330
1F
100
AcDbEntity
  8
1
  6
CONTINUOUS
370
50
 62
4
100
AcDbLine
 10
74.0
 20
5.331173
 30
0.0
 11
74.000137
 21
5.666634999999999
 31
0.0
  0
LINE
  5
AD4
330
1F
100
AcDbEntity
  8
1
  6
CONTINUOUS
370
50
 62
4
100
AcDbLine
 10
74.0
 20
5.331072
 30
0.0
 11
74.000137
 21
5.667178
 31
0.0
  0
LINE
  5
AD5
330
1F
100
AcDbEntity
  8
1
  6
CONTINUOUS
370
50
 62
4
100
AcDbLine
 10
74.00434899999999
 20
-6.816238999999999
 30
0.0
 11
74.00445599999999
 21
-6.547904
 31
0.0
  0
LINE
  5
AD6
330
1F
100
AcDbEntity
  8
1
  6
CONTINUOUS
370
50
 62
4
100
AcDbLine
 10
74.00434899999999
 20
-6.816898999999999
 30
0.0
 11
74.00445599999999
 21
-6.548103999999999
 31
0.0
  0
LINE
  5
AD7
330
1F
100
AcDbEntity
  8
1
  6
CONTINUOUS
370
50
 62
4
100
AcDbLine
 10
74.00445599999999
 20
-6.547904
 30
0.0
 11
74.004555
 21
-6.260695999999999
 31
0.0
  0
LINE
  5
AD8
330
1F
100
AcDbEntity
  8
1
  6
CONTINUOUS
370
50
 62
4
100
AcDbLine
 10
74.00445599999999
 20
-6.548103999999999
 30
0.0
 11
74.004555
 21
-6.260603
 31
0.0
  0
LINE
  5
AD9
330
1F
100
AcDbEntity
  8
1
  6
CONTINUOUS
370
50
 62
4
100
AcDbLine
 10
74.004738
 20
-2.773698
 30
0.0
 11
74.00482199999999
 21
-2.508817
 31
0.0
  0
LINE
  5
ADA
330
1F
100
AcDbEntity
  8
1
  6
CONTINUOUS
370
50
 62
4
100
AcDbLine
 10
74.004738
 20
-2.773698
 30
0.0
 11
74.00482199999999
 21
-2.508526
 31
0.0
  0
LINE
  5
ADB
330
1F
100
AcDbEntity
  8
1
  6
CONTINUOUS
370
50
 62
4
100
AcDbLine
 10
74.004555
 20
-6.260695999999999
 30
0.0
 11
74.004646
 21
-5.95503
 31
0.0
  0
LINE
  5
ADC
330
1F
100
AcDbEntity
  8
1
  6
CONTINUOUS
370
50
 62
4
100
AcDbLine
 10
74.004555
 20
-6.260603
 30
0.0
 11
74.004646
 21
-5.954854999999999
 31
0.0
  0
LINE
  5
ADD
330
1F
100
AcDbEntity
  8
1
  6
CONTINUOUS
370
50
 62
4
100
AcDbLine
 10
74.004646
 20
-5.954854999999999
 30
0.0
 11
74.004723
 21
-5.631322
 31
0.0
  0
LINE
  5
ADE
330
1F
100
AcDbEntity
  8
1
  6
CONTINUOUS
370
50
 62
4
100
AcDbLine
 10
74.004646
 20
-5.95503
 30
0.0
 11
74.004723
 21
-5.631322
 31
0.0
  0
LINE
  5
ADF
330
1F
100
AcDbEntity
  8
1
  6
CONTINUOUS
370
50
 62
4
100
AcDbLine
 10
74.00482199999999
 20
-2.508817
 30
0.0
 11
74.00488299999999
 21
-2.244833
 31
0.0
  0
LINE
  5
AE0
330
1F
100
AcDbEntity
  8
1
  6
CONTINUOUS
370
50
 62
4
100
AcDbLine
 10
74.00482199999999
 20
-2.508526
 30
0.0
 11
74.00488299999999
 21
-2.244441
 31
0.0
  0
LINE
  5
AE1
330
1F
100
AcDbEntity
  8
1
  6
CONTINUOUS
370
50
 62
4
100
AcDbLine
 10
74.00488299999999
 20
-2.244441
 30
0.0
 11
74.00492899999999
 21
-1.981916
 31
0.0
  0
LINE
  5
AE2
330
1F
100
AcDbEntity
  8
1
  6
CONTINUOUS
370
50
 62
4
100
AcDbLine
 10
74.00488299999999
 20
-2.244833
 30
0.0
 11
74.00492899999999
 21
-1.982224
 31
0.0
  0
LINE
  5
AE3
330
1F
100
AcDbEntity
  8
1
  6
CONTINUOUS
370
50
 62
4
100
AcDbLine
 10
74.00492899999999
 20
-1.981916
 30
0.0
 11
74.004959
 21
-1.721424
 31
0.0
  0
LINE
  5
AE4
330
1F
100
AcDbEntity
  8
1
  6
CONTINUOUS
370
50
 62
4
100
AcDbLine
 10
74.00492899999999
 20
-1.982224
 30
0.0
 11
74.004959
 21
-1.721468
 31
0.0
  0
LINE
  5
AE5
330
1F
100
AcDbEntity
  8
1
  6
CONTINUOUS
370
50
 62
4
100
AcDbLine
 10
74.004723
 20
-5.231872999999999
 30
0.0
 11
74.00473
 21
-5.009509
 31
0.0
  0
LINE
  5
AE6
330
1F
100
AcDbEntity
  8
1
  6
CONTINUOUS
370
50
 62
4
100
AcDbLine
 10
74.004723
 20
-5.231872999999999
 30
0.0
 11
74.00473
 21
-5.009509
 31
0.0
  0
LINE
  5
AE7
330
1F
100
AcDbEntity
  8
1
  6
CONTINUOUS
370
50
 62
4
100
AcDbLine
 10
74.004959
 20
-1.721424
 30
0.0
 11
74.004967
 21
-1.463439
 31
0.0
  0
LINE
  5
AE8
330
1F
100
AcDbEntity
  8
1
  6
CONTINUOUS
370
50
 62
4
100
AcDbLine
 10
74.004959
 20
-1.721468
 30
0.0
 11
74.004967
 21
-1.463042
 31
0.0
  0
LINE
  5
AE9
330
1F
100
AcDbEntity
  8
1
  6
CONTINUOUS
370
50
 62
4
100
AcDbLine
 10
74.00473
 20
-3.982113
 30
0.0
 11
74.004738
 21
-3.695124
 31
0.0
  0
LINE
  5
AEA
330
1F
100
AcDbEntity
  8
1
  6
CONTINUOUS
370
50
 62
4
100
AcDbLine
 10
74.00473
 20
-3.982113
 30
0.0
 11
74.004738
 21
-3.695124
 31
0.0
  0
LINE
  5
AEB
330
1F
100
AcDbEntity
  8
1
  6
CONTINUOUS
370
50
 62
4
100
AcDbLine
 10
0.0
 20
-12.5
 30
0.0
 11
0.0
 21
12.5
 31
0.0
  0
LINE
  5
AEC
330
1F
100
AcDbEntity
  8
1
  6
CONTINUOUS
370
50
 62
4
100
AcDbLine
 10
1.0
 20
-12.5
 30
0.0
 11
1.0
 21
12.5
 31
0.0
  0
LINE
  5
AED
330
1F
100
AcDbEntity
  8
1
  6
CONTINUOUS
370
50
 62
4
100
AcDbLine
 10
6.319999999999999
 20
-11.99995
 30
0.0
 11
6.319999999999999
 21
11.99995
 31
0.0
  0
LINE
  5
AEE
330
1F
100
AcDbEntity
  8
1
  6
CONTINUOUS
370
50
 62
4
100
AcDbLine
 10
74.0
 20
-8.426086999999999
 30
0.0
 11
74.0
 21
8.426086999999999
 31
0.0
  0
LINE
  5
AEF
330
1F
100
AcDbEntity
  8
1
  6
CONTINUOUS
370
50
 62
4
100
AcDbLine
 10
74.004723
 20
-5.631322
 30
0.0
 11
74.004723
 21
-5.231872999999999
 31
0.0
  0
LINE
  5
AF0
330
1F
100
AcDbEntity
  8
1
  6
CONTINUOUS
370
50
 62
4
100
AcDbLine
 10
74.00473
 20
-5.009509
 30
0.0
 11
74.00473
 21
-3.982113
 31
0.0
  0
LINE
  5
AF1
330
1F
100
AcDbEntity
  8
1
  6
CONTINUOUS
370
50
 62
4
100
AcDbLine
 10
74.004738
 20
-3.695124
 30
0.0
 11
74.004738
 21
-2.773698
 31
0.0
  0
LINE
  5
AF2
330
1F
100
AcDbEntity
  8
1
  6
CONTINUOUS
370
50
 62
4
100
AcDbLine
 10
97.0
 20
-12.056646
 30
0.0
 11
97.0
 21
-11.1712
 31
0.0
  0
LINE
  5
AF3
330
1F
100
AcDbEntity
  8
1
  6
CONTINUOUS
370
50
 62
4
100
AcDbLine
 10
101.0
 20
-8.5
 30
0.0
 11
101.0
 21
2.161628
 31
0.0
  0
LINE
  5
AF4
330
1F
100
AcDbEntity
  8
1
  6
CONTINUOUS
370
50
 62
4
100
AcDbLine
 10
101.0
 20
2.161634
 30
0.0
 11
101.0
 21
8.499984999999999
 31
0.0
  0
ELLIPSE
  5
AF5
330
1F
100
AcDbEntity
  8
1
  6
CONTINUOUS
370
50
 62
4
100
AcDbEllipse
 10
69.236974
 20
16.811485
 30
0.0
 11
1.151468475514448
 21
12.85704495741325
 31
0.0
210
0.0
220
0.0
230
0.9999999999999999
 40
0.9416045478789076
 41
2.162021433943603
 42
3.555181236394246
  0
ELLIPSE
  5
AF6
330
1F
100
AcDbEntity
  8
1
  6
CONTINUOUS
370
50
 62
4
100
AcDbEllipse
 10
74.733271
 20
-16.31924
 30
0.0
 11
-1.213443813577054
 21
13.54904801669591
 31
0.0
210
0.0
220
0.0
230
1.0
 40
0.9416046027147038
 41
6.245606146281868
 42
7.068152277116438
  0
ELLIPSE
  5
AF7
330
1F
100
AcDbEntity
  8
1
  6
CONTINUOUS
370
50
 62
4
100
AcDbEllipse
 10
76.076977
 20
-16.198898
 30
0.0
 11
-1.675391516502927
 21
18.70705495374234
 31
0.0
210
0.0
220
0.0
230
0.9999999999999999
 40
0.9416045454303681
 41
0.022825117658018
 42
0.3376889857234144
  0
LINE
  5
AF8
330
1F
100
AcDbEntity
  8
CUT
  6
CONTINUOUS
370
25
 62
1
100
AcDbLine
 10
74.01
 20
0.0
 30
0.0
 11
101.0
 21
0.0
 31
0.0
  0
LINE
  5
AF9
330
1F
100
AcDbEntity
  8
CUT
  6
CONTINUOUS
370
25
 62
1
100
AcDbLine
 10
101.0
 20
0.0
 30
0.0
 11
101.0
 21
8.5
 31
0.0
  0
ARC
  5
AFA
330
1F
100
AcDbEntity
  8
CUT
  6
CONTINUOUS
370
25
 62
1
100
AcDbCircle
 10
97.0
 20
8.5
 30
0.0
 40
4.0
100
AcDbArc
 50
0.0
 51
90.0
  0
LINE
  5
AFB
330
1F
100
AcDbEntity
  8
CUT
  6
CONTINUOUS
370
25
 62
1
100
AcDbLine
 10
97.0
 20
12.5
 30
0.0
 11
74.0
 21
12.4999
 31
0.0
  0
LINE
  5
AFC
330
1F
100
AcDbEntity
  8
CUT
  6
CONTINUOUS
370
25
 62
1
100
AcDbLine
 10
74.0
 20
12.4999
 30
0.0
 11
74.0
 21
12.4949
 31
0.0
  0
LINE
  5
AFD
330
1F
100
AcDbEntity
  8
CUT
  6
CONTINUOUS
370
25
 62
1
100
AcDbLine
 10
74.0
 20
12.4949
 30
0.0
 11
74.01
 21
0.0
 31
0.0
  0
LINE
  5
AFE
330
1F
100
AcDbEntity
  8
NOCUT
  6
CONTINUOUS
370
25
 62
7
100
AcDbLine
 10
1.0
 20
0.0
 30
0.0
 11
74.01
 21
0.0
 31
0.0
  0
LINE
  5
AFF
330
1F
100
AcDbEntity
  8
NOCUT
  6
CONTINUOUS
370
25
 62
7
100
AcDbLine
 10
74.01
 20
0.0
 30
0.0
 11
74.0
 21
12.49495
 31
0.0
  0
LINE
  5
B00
330
1F
100
AcDbEntity
  8
NOCUT
  6
CONTINUOUS
370
25
 62
7
100
AcDbLine
 10
74.0
 20
12.49495
 30
0.0
 11
74.0
 21
11.99995
 31
0.0
  0
LINE
  5
B01
330
1F
100
AcDbEntity
  8
NOCUT
  6
CONTINUOUS
370
25
 62
7
100
AcDbLine
 10
74.0
 20
11.99995
 30
0.0
 11
6.319999999999993
 21
11.99995
 31
0.0
  0
LINE
  5
B02
330
1F
100
AcDbEntity
  8
NOCUT
  6
CONTINUOUS
370
25
 62
7
100
AcDbLine
 10
6.319999999999993
 20
11.99995
 30
0.0
 11
1.0
 21
12.49995
 31
0.0
  0
LINE
  5
B03
330
1F
100
AcDbEntity
  8
SK1
  6
CONTINUOUS
370
50
 62
4
100
AcDbLine
 10
0.0
 20
12.5
 30
0.0
 11
-55.0
 21
12.5
 31
0.0
  0
LINE
  5
B04
330
1F
100
AcDbEntity
  8
SK1
  6
CONTINUOUS
370
50
 62
4
100
AcDbLine
 10
-55.0
 20
12.5
 30
0.0
 11
-56.0
 21
11.5
 31
0.0
  0
LINE
  5
B05
330
1F
100
AcDbEntity
  8
SK1
  6
CONTINUOUS
370
50
 62
4
100
AcDbLine
 10
-56.0
 20
11.5
 30
0.0
 11
-56.0
 21
-11.5
 31
0.0
  0
LINE
  5
B06
330
1F
100
AcDbEntity
  8
SK1
  6
CONTINUOUS
370
50
 62
4
100
AcDbLine
 10
-56.0
 20
-11.5
 30
0.0
 11
-55.0
 21
-12.5
 31
0.0
  0
LINE
  5
B07
330
1F
100
AcDbEntity
  8
SK1
  6
CONTINUOUS
370
50
 62
4
100
AcDbLine
 10
-55.0
 20
-12.5
 30
0.0
 11
0.0
 21
-12.5
 31
0.0
  0
LINE
  5
B08
330
1F
100
AcDbEntity
  8
SK1
  6
CONTINUOUS
370
50
 62
4
100
AcDbLine
 10
-55.0
 20
12.5
 30
0.0
 11
-55.0
 21
-12.5
 31
0.0
  0
LINE
  5
B09
330
1F
100
AcDbEntity
  8
NOCUT
  6
CONTINUOUS
370
25
 62
7
100
AcDbLine
 10
0.0
 20
0.0
 30
0.0
 11
0.0
 21
12.5
 31
0.0
  0
LINE
  5
B0A
330
1F
100
AcDbEntity
  8
NOCUT
  6
CONTINUOUS
370
25
 62
7
100
AcDbLine
 10
0.0
 20
12.5
 30
0.0
 11
1.0
 21
12.5
 31
0.0
  0
LINE
  5
B0B
330
1F
100
AcDbEntity
  8
NOCUT
  6
CONTINUOUS
370
25
 62
7
100
AcDbLine
 10
1.0
 20
0.0
 30
0.0
 11
0.0
 21
0.0
 31
0.0
  0
LINE
  5
B0C
330
1F
100
AcDbEntity
  8
SK2
  6
CONTINUOUS
370
25
 62
7
100
AcDbLine
 10
-56.0
 20
-12.5
 30
0.0
 11
-69.0
 21
-12.5
 31
0.0
  0
LINE
  5
B0D
330
1F
100
AcDbEntity
  8
SK2
  6
CONTINUOUS
370
25
 62
7
100
AcDbLine
 10
-69.0
 20
12.5
 30
0.0
 11
-56.0
 21
12.5
 31
0.0
  0
LINE
  5
B0E
330
1F
100
AcDbEntity
  8
SK2
  6
CONTINUOUS
370
25
 62
7
100
AcDbLine
 10
-68.0
 20
-12.5
 30
0.0
 11
-68.0
 21
12.5
 31
0.0
  0
LINE
  5
B0F
330
1F
100
AcDbEntity
  8
SK2
  6
CONTINUOUS
370
25
 62
7
100
AcDbLine
 10
-68.0
 20
-12.5
 30
0.0
 11
-69.0
 21
-7.5
 31
0.0
  0
LINE
  5
B10
330
1F
100
AcDbEntity
  8
SK2
  6
CONTINUOUS
370
25
 62
7
100
AcDbLine
 10
-69.0
 20
-7.5
 30
0.0
 11
-67.0
 21
-7.5
 31
0.0
  0
LINE
  5
B11
330
1F
100
AcDbEntity
  8
SK2
  6
CONTINUOUS
370
25
 62
7
100
AcDbLine
 10
-67.0
 20
-7.5
 30
0.0
 11
-68.0
 21
-12.5
 31
0.0
  0
LINE
  5
B12
330
1F
100
AcDbEntity
  8
SK2
  6
CONTINUOUS
370
25
 62
7
100
AcDbLine
 10
-68.01309883354382
 20
-12.43450583228092
 30
0.0
 11
-67.98035174968426
 21
-12.40175874842136
 31
0.0
  0
LINE
  5
B13
330
1F
100
AcDbEntity
  8
SK2
  6
CONTINUOUS
370
25
 62
7
100
AcDbLine
 10
-68.08380951166248
 20
-12.08095244168765
 30
0.0
 11
-67.87428573250628
 21
-11.87142866253144
 31
0.0
  0
LINE
  5
B14
330
1F
100
AcDbEntity
  8
SK2
  6
CONTINUOUS
370
25
 62
7
100
AcDbLine
 10
-68.15452018978112
 20
-11.72739905109437
 30
0.0
 11
-67.7682197153283
 21
-11.34109857664154
 31
0.0
  0
LINE
  5
B15
330
1F
100
AcDbEntity
  8
SK2
  6
CONTINUOUS
370
25
 62
7
100
AcDbLine
 10
-68.22523086789978
 20
-11.37384566050109
 30
0.0
 11
-67.66215369815032
 21
-10.81076849075163
 31
0.0
  0
LINE
  5
B16
330
1F
100
AcDbEntity
  8
SK2
  6
CONTINUOUS
370
25
 62
7
100
AcDbLine
 10
-68.29594154601844
 20
-11.02029226990781
 30
0.0
 11
-67.55608768097235
 21
-10.28043840486173
 31
0.0
  0
LINE
  5
B17
330
1F
100
AcDbEntity
  8
SK2
  6
CONTINUOUS
370
25
 62
7
100
AcDbLine
 10
-68.36665222413708
 20
-10.66673887931454
 30
0.0
 11
-67.45002166379436
 21
-9.750108318971805
 31
0.0
  0
LINE
  5
B18
330
1F
100
AcDbEntity
  8
SK2
  6
CONTINUOUS
370
25
 62
7
100
AcDbLine
 10
-68.43736290225576
 20
-10.31318548872127
 30
0.0
 11
-67.34395564661638
 21
-9.219778233081882
 31
0.0
  0
LINE
  5
B19
330
1F
100
AcDbEntity
  8
SK2
  6
CONTINUOUS
370
25
 62
7
100
AcDbLine
 10
-68.5080735803744
 20
-9.959632098127997
 30
0.0
 11
-67.2378896294384
 21
-8.689448147191982
 31
0.0
  0
LINE
  5
B1A
330
1F
100
AcDbEntity
  8
SK2
  6
CONTINUOUS
370
25
 62
7
100
AcDbLine
 10
-68.57878425849306
 20
-9.606078707534735
 30
0.0
 11
-67.13182361226042
 21
-8.159118061302067
 31
0.0
  0
LINE
  5
B1B
330
1F
100
AcDbEntity
  8
SK2
  6
CONTINUOUS
370
25
 62
7
100
AcDbLine
 10
-68.6494949366117
 20
-9.252525316941451
 30
0.0
 11
-67.02575759508244
 21
-7.628787975412159
 31
0.0
  0
LINE
  5
B1C
330
1F
100
AcDbEntity
  8
SK2
  6
CONTINUOUS
370
25
 62
7
100
AcDbLine
 10
-68.72020561473036
 20
-8.898971926348182
 30
0.0
 11
-67.3212336883822
 21
-7.5
 31
0.0
  0
LINE
  5
B1D
330
1F
100
AcDbEntity
  8
SK2
  6
CONTINUOUS
370
25
 62
7
100
AcDbLine
 10
-68.79091629284902
 20
-8.54541853575492
 30
0.0
 11
-67.74549775709411
 21
-7.5
 31
0.0
  0
LINE
  5
B1E
330
1F
100
AcDbEntity
  8
SK2
  6
CONTINUOUS
370
25
 62
7
100
AcDbLine
 10
-68.86162697096768
 20
-8.191865145161643
 30
0.0
 11
-68.16976182580605
 21
-7.5
 31
0.0
  0
LINE
  5
B1F
330
1F
100
AcDbEntity
  8
SK2
  6
CONTINUOUS
370
25
 62
7
100
AcDbLine
 10
-68.93233764908634
 20
-7.838311754568373
 30
0.0
 11
-68.59402589451797
 21
-7.500000000000007
 31
0.0
  0
LINE
  5
B20
330
1F
100
AcDbEntity
  8
SK2
  6
CONTINUOUS
370
25
 62
7
100
AcDbLine
 10
-68.03173278606835
 20
-12.34133606965823
 30
0.0
 11
-67.97884480928776
 21
-12.39422404643881
 31
0.0
  0
LINE
  5
B21
330
1F
100
AcDbEntity
  8
SK2
  6
CONTINUOUS
370
25
 62
7
100
AcDbLine
 10
-68.13779880324635
 20
-11.81100598376828
 30
0.0
 11
-67.9081341311691
 21
-12.04067065584553
 31
0.0
  0
LINE
  5
B22
330
1F
100
AcDbEntity
  8
SK2
  6
CONTINUOUS
370
25
 62
7
100
AcDbLine
 10
-68.24386482042432
 20
-11.2806758978784
 30
0.0
 11
-67.83742345305046
 21
-11.68711726525225
 31
0.0
  0
LINE
  5
B23
330
1F
100
AcDbEntity
  8
SK2
  6
CONTINUOUS
370
25
 62
7
100
AcDbLine
 10
-68.3499308376023
 20
-10.7503458119885
 30
0.0
 11
-67.7667127749318
 21
-11.33356387465899
 31
0.0
  0
LINE
  5
B24
330
1F
100
AcDbEntity
  8
SK2
  6
CONTINUOUS
370
25
 62
7
100
AcDbLine
 10
-68.45599685478028
 20
-10.22001572609858
 30
0.0
 11
-67.69600209681315
 21
-10.98001048406572
 31
0.0
  0
LINE
  5
B25
330
1F
100
AcDbEntity
  8
SK2
  6
CONTINUOUS
370
25
 62
7
100
AcDbLine
 10
-68.56206287195826
 20
-9.689685640208666
 30
0.0
 11
-67.62529141869449
 21
-10.62645709347244
 31
0.0
  0
LINE
  5
B26
330
1F
100
AcDbEntity
  8
SK2
  6
CONTINUOUS
370
25
 62
7
100
AcDbLine
 10
-68.66812888913624
 20
-9.159355554318765
 30
0.0
 11
-67.55458074057584
 21
-10.27290370287916
 31
0.0
  0
LINE
  5
B27
330
1F
100
AcDbEntity
  8
SK2
  6
CONTINUOUS
370
25
 62
7
100
AcDbLine
 10
-68.77419490631422
 20
-8.62902546842885
 30
0.0
 11
-67.48387006245719
 21
-9.919350312285886
 31
0.0
  0
LINE
  5
B28
330
1F
100
AcDbEntity
  8
SK2
  6
CONTINUOUS
370
25
 62
7
100
AcDbLine
 10
-68.88026092349222
 20
-8.098695382538935
 30
0.0
 11
-67.41315938433853
 21
-9.565796921692609
 31
0.0
  0
LINE
  5
B29
330
1F
100
AcDbEntity
  8
SK2
  6
CONTINUOUS
370
25
 62
7
100
AcDbLine
 10
-68.9863269406702
 20
-7.568365296649034
 30
0.0
 11
-67.34244870621987
 21
-9.212243531099361
 31
0.0
  0
LINE
  5
B2A
330
1F
100
AcDbEntity
  8
SK2
  6
CONTINUOUS
370
25
 62
7
100
AcDbLine
 10
-68.6304281686073
 20
-7.5
 30
0.0
 11
-67.27173802810123
 21
-8.85869014050607
 31
0.0
  0
LINE
  5
B2B
330
1F
100
AcDbEntity
  8
SK2
  6
CONTINUOUS
370
25
 62
7
100
AcDbLine
 10
-68.20616409989537
 20
-7.5
 30
0.0
 11
-67.20102734998255
 21
-8.505136749912808
 31
0.0
  0
LINE
  5
B2C
330
1F
100
AcDbEntity
  8
SK2
  6
CONTINUOUS
370
25
 62
7
100
AcDbLine
 10
-67.78190003118344
 20
-7.5
 30
0.0
 11
-67.13031667186391
 21
-8.151583359319531
 31
0.0
  0
LINE
  5
B2D
330
1F
100
AcDbEntity
  8
SK2
  6
CONTINUOUS
370
25
 62
7
100
AcDbLine
 10
-67.35763596247152
 20
-7.5
 30
0.0
 11
-67.05960599374525
 21
-7.798029968726269
 31
0.0
  0
LINE
  5
B2E
330
1F
100
AcDbEntity
  8
SK2
  6
CONTINUOUS
370
25
 62
7
100
AcDbLine
 10
-68.0
 20
12.5
 30
0.0
 11
-67.0
 21
7.5
 31
0.0
  0
LINE
  5
B2F
330
1F
100
AcDbEntity
  8
SK2
  6
CONTINUOUS
370
25
 62
7
100
AcDbLine
 10
-67.0
 20
7.5
 30
0.0
 11
-69.0
 21
7.5
 31
0.0
  0
LINE
  5
B30
330
1F
100
AcDbEntity
  8
SK2
  6
CONTINUOUS
370
25
 62
7
100
AcDbLine
 10
-69.0
 20
7.5
 30
0.0
 11
-68.0
 21
12.5
 31
0.0
  0
LINE
  5
B31
330
1F
100
AcDbEntity
  8
SK2
  6
CONTINUOUS
370
25
 62
7
100
AcDbLine
 10
-67.17047609329967
 20
7.5
 30
0.0
 11
-67.02841268221661
 21
7.642063411083058
 31
0.0
  0
LINE
  5
B32
330
1F
100
AcDbEntity
  8
SK2
  6
CONTINUOUS
370
25
 62
7
100
AcDbLine
 10
-67.5947401620116
 20
7.5
 30
0.0
 11
-67.09912336033527
 21
7.995616801676334
 31
0.0
  0
LINE
  5
B33
330
1F
100
AcDbEntity
  8
SK2
  6
CONTINUOUS
370
25
 62
7
100
AcDbLine
 10
-68.01900423072354
 20
7.5
 30
0.0
 11
-67.16983403845391
 21
8.349170192269625
 31
0.0
  0
LINE
  5
B34
330
1F
100
AcDbEntity
  8
SK2
  6
CONTINUOUS
370
25
 62
7
100
AcDbLine
 10
-68.44326829943546
 20
7.5
 30
0.0
 11
-67.24054471657257
 21
8.702723582862902
 31
0.0
  0
LINE
  5
B35
330
1F
100
AcDbEntity
  8
SK2
  6
CONTINUOUS
370
25
 62
7
100
AcDbLine
 10
-68.86753236814738
 20
7.5
 30
0.0
 11
-67.31125539469123
 21
9.056276973456164
 31
0.0
  0
LINE
  5
B36
330
1F
100
AcDbEntity
  8
SK2
  6
CONTINUOUS
370
25
 62
7
100
AcDbLine
 10
-68.92705089078518
 20
7.864745546074133
 30
0.0
 11
-67.38196607280989
 21
9.409830364049427
 31
0.0
  0
LINE
  5
B37
330
1F
100
AcDbEntity
  8
SK2
  6
CONTINUOUS
370
25
 62
7
100
AcDbLine
 10
-68.82098487360719
 20
8.395075631964062
 30
0.0
 11
-67.45267675092855
 21
9.763383754642703
 31
0.0
  0
LINE
  5
B38
330
1F
100
AcDbEntity
  8
SK2
  6
CONTINUOUS
370
25
 62
7
100
AcDbLine
 10
-68.71491885642921
 20
8.925405717853963
 30
0.0
 11
-67.5233874290472
 21
10.11693714523598
 31
0.0
  0
LINE
  5
B39
330
1F
100
AcDbEntity
  8
SK2
  6
CONTINUOUS
370
25
 62
7
100
AcDbLine
 10
-68.60885283925123
 20
9.455735803743863
 30
0.0
 11
-67.59409810716585
 21
10.47049053582926
 31
0.0
  0
LINE
  5
B3A
330
1F
100
AcDbEntity
  8
SK2
  6
CONTINUOUS
370
25
 62
7
100
AcDbLine
 10
-68.50278682207325
 20
9.986065889633792
 30
0.0
 11
-67.6648087852845
 21
10.82404392642255
 31
0.0
  0
LINE
  5
B3B
330
1F
100
AcDbEntity
  8
SK2
  6
CONTINUOUS
370
25
 62
7
100
AcDbLine
 10
-68.39672080489527
 20
10.51639597552371
 30
0.0
 11
-67.73551946340316
 21
11.17759731701581
 31
0.0
  0
LINE
  5
B3C
330
1F
100
AcDbEntity
  8
SK2
  6
CONTINUOUS
370
25
 62
7
100
AcDbLine
 10
-68.29065478771729
 20
11.04672606141361
 30
0.0
 11
-67.80623014152181
 21
11.53115070760909
 31
0.0
  0
LINE
  5
B3D
330
1F
100
AcDbEntity
  8
SK2
  6
CONTINUOUS
370
25
 62
7
100
AcDbLine
 10
-68.1845887705393
 20
11.57705614730351
 30
0.0
 11
-67.87694081964047
 21
11.88470409820235
 31
0.0
  0
LINE
  5
B3E
330
1F
100
AcDbEntity
  8
SK2
  6
CONTINUOUS
370
25
 62
7
100
AcDbLine
 10
-68.07852275336133
 20
12.10738623319342
 30
0.0
 11
-67.94765149775913
 21
12.23825748879563
 31
0.0
  0
LINE
  5
B3F
330
1F
100
AcDbEntity
  8
SK2
  6
CONTINUOUS
370
25
 62
7
100
AcDbLine
 10
-68.94366803710183
 20
7.781659814490908
 30
0.0
 11
-68.66200822261092
 21
7.5
 31
0.0
  0
LINE
  5
B40
330
1F
100
AcDbEntity
  8
SK2
  6
CONTINUOUS
370
25
 62
7
100
AcDbLine
 10
-68.87295735898316
 20
8.135213205084156
 30
0.0
 11
-68.237744153899
 21
7.5
 31
0.0
  0
LINE
  5
B41
330
1F
100
AcDbEntity
  8
SK2
  6
CONTINUOUS
370
25
 62
7
100
AcDbLine
 10
-68.80224668086451
 20
8.48876659567744
 30
0.0
 11
-67.81348008518708
 21
7.500000000000007
 31
0.0
  0
LINE
  5
B42
330
1F
100
AcDbEntity
  8
SK2
  6
CONTINUOUS
370
25
 62
7
100
AcDbLine
 10
-68.73153600274586
 20
8.84231998627071
 30
0.0
 11
-67.38921601647515
 21
7.5
 31
0.0
  0
LINE
  5
B43
330
1F
100
AcDbEntity
  8
SK2
  6
CONTINUOUS
370
25
 62
7
100
AcDbLine
 10
-68.6608253246272
 20
9.195873376863986
 30
0.0
 11
-67.0087620130592
 21
7.543810065295986
 31
0.0
  0
LINE
  5
B44
330
1F
100
AcDbEntity
  8
SK2
  6
CONTINUOUS
370
25
 62
7
100
AcDbLine
 10
-68.59011464650855
 20
9.549426767457263
 30
0.0
 11
-67.11482803023718
 21
8.074140151185887
 31
0.0
  0
LINE
  5
B45
330
1F
100
AcDbEntity
  8
SK2
  6
CONTINUOUS
370
25
 62
7
100
AcDbLine
 10
-68.5194039683899
 20
9.902980158050532
 30
0.0
 11
-67.22089404741516
 21
8.604470237075795
 31
0.0
  0
LINE
  5
B46
330
1F
100
AcDbEntity
  8
SK2
  6
CONTINUOUS
370
25
 62
7
100
AcDbLine
 10
-68.44869329027124
 20
10.2565335486438
 30
0.0
 11
-67.32696006459315
 21
9.13480032296573
 31
0.0
  0
LINE
  5
B47
330
1F
100
AcDbEntity
  8
SK2
  6
CONTINUOUS
370
25
 62
7
100
AcDbLine
 10
-68.37798261215258
 20
10.61008693923708
 30
0.0
 11
-67.43302608177113
 21
9.665130408855632
 31
0.0
  0
LINE
  5
B48
330
1F
100
AcDbEntity
  8
SK2
  6
CONTINUOUS
370
25
 62
7
100
AcDbLine
 10
-68.30727193403393
 20
10.96364032983035
 30
0.0
 11
-67.53909209894911
 21
10.19546049474553
 31
0.0
  0
LINE
  5
B49
330
1F
100
AcDbEntity
  8
SK2
  6
CONTINUOUS
370
25
 62
7
100
AcDbLine
 10
-68.23656125591528
 20
11.31719372042362
 30
0.0
 11
-67.64515811612709
 21
10.72579058063544
 31
0.0
  0
LINE
  5
B4A
330
1F
100
AcDbEntity
  8
SK2
  6
CONTINUOUS
370
25
 62
7
100
AcDbLine
 10
-68.16585057779662
 20
11.67074711101689
 30
0.0
 11
-67.75122413330507
 21
11.25612066652535
 31
0.0
  0
LINE
  5
B4B
330
1F
100
AcDbEntity
  8
SK2
  6
CONTINUOUS
370
25
 62
7
100
AcDbLine
 10
-68.09513989967797
 20
12.02430050161017
 30
0.0
 11
-67.85729015048304
 21
11.78645075241523
 31
0.0
  0
LINE
  5
B4C
330
1F
100
AcDbEntity
  8
SK2
  6
CONTINUOUS
370
25
 62
7
100
AcDbLine
 10
-68.02442922155932
 20
12.37785389220343
 30
0.0
 11
-67.96335616766102
 21
12.31678083830515
 31
0.0
  0
TEXT
  5
B4D
330
1F
100
AcDbEntity
  8
SK2
  6
CONTINUOUS
370
25
 62
7
100
AcDbText
 10
-69.5
 20
-0.641666666666667
 30
0.0
 40
3.5
  1
25
 50
90.0
 72
     1
 11
-69.5
 21
2.275
 31
0.0
100
AcDbText
  0
CIRCLE
  5
B4E
330
1F
100
AcDbEntity
  8
SK2
  6
CONTINUOUS
370
25
 62
7
100
AcDbCircle
 10
-71.25
 20
-2.625
 30
0.0
 40
1.4
  0
LINE
  5
B4F
330
1F
100
AcDbEntity
  8
SK2
  6
CONTINUOUS
370
25
 62
7
100
AcDbLine
 10
-69.85
 20
-4.024999999999999
 30
0.0
 11
-72.65
 21
-1.224999999999999
 31
0.0
  0
LINE
  5
B50
330
1F
100
AcDbEntity
  8
SK2
  6
CONTINUOUS
370
25
 62
7
100
AcDbLine
 10
-56.0
 20
12.5
 30
0.0
 11
-56.0
 21
25.5
 31
0.0
  0
LINE
  5
B51
330
1F
100
AcDbEntity
  8
SK2
  6
CONTINUOUS
370
25
 62
7
100
AcDbLine
 10
0.0000000000000001
 20
25.5
 30
0.0
 11
-0.0000000000000007
 21
12.5
 31
0.0
  0
LINE
  5
B52
330
1F
100
AcDbEntity
  8
SK2
  6
CONTINUOUS
370
25
 62
7
100
AcDbLine
 10
-56.0
 20
24.5
 30
0.0
 11
0.0
 21
24.5
 31
0.0
  0
LINE
  5
B53
330
1F
100
AcDbEntity
  8
SK2
  6
CONTINUOUS
370
25
 62
7
100
AcDbLine
 10
-56.0
 20
24.5
 30
0.0
 11
-51.0
 21
25.5
 31
0.0
  0
LINE
  5
B54
330
1F
100
AcDbEntity
  8
SK2
  6
CONTINUOUS
370
25
 62
7
100
AcDbLine
 10
-51.0
 20
25.5
 30
0.0
 11
-51.0
 21
23.5
 31
0.0
  0
LINE
  5
B55
330
1F
100
AcDbEntity
  8
SK2
  6
CONTINUOUS
370
25
 62
7
100
AcDbLine
 10
-51.0
 20
23.5
 30
0.0
 11
-56.0
 21
24.5
 31
0.0
  0
LINE
  5
B56
330
1F
100
AcDbEntity
  8
SK2
  6
CONTINUOUS
370
25
 62
7
100
AcDbLine
 10
-51.14206341108286
 20
23.52841268221657
 30
0.0
 11
-51.0
 21
23.67047609329943
 31
0.0
  0
LINE
  5
B57
330
1F
100
AcDbEntity
  8
SK2
  6
CONTINUOUS
370
25
 62
7
100
AcDbLine
 10
-51.49561680167614
 20
23.59912336033522
 30
0.0
 11
-51.0
 21
24.09474016201136
 31
0.0
  0
LINE
  5
B58
330
1F
100
AcDbEntity
  8
SK2
  6
CONTINUOUS
370
25
 62
7
100
AcDbLine
 10
-51.8491701922694
 20
23.66983403845388
 30
0.0
 11
-51.0
 21
24.51900423072328
 31
0.0
  0
LINE
  5
B59
330
1F
100
AcDbEntity
  8
SK2
  6
CONTINUOUS
370
25
 62
7
100
AcDbLine
 10
-52.20272358286269
 20
23.74054471657253
 30
0.0
 11
-51.0
 21
24.94326829943522
 31
0.0
  0
LINE
  5
B5A
330
1F
100
AcDbEntity
  8
SK2
  6
CONTINUOUS
370
25
 62
7
100
AcDbLine
 10
-52.55627697345597
 20
23.81125539469119
 30
0.0
 11
-51.0
 21
25.36753236814715
 31
0.0
  0
LINE
  5
B5B
330
1F
100
AcDbEntity
  8
SK2
  6
CONTINUOUS
370
25
 62
7
100
AcDbLine
 10
-52.90983036404924
 20
23.88196607280985
 30
0.0
 11
-51.36474554607386
 21
25.42705089078523
 31
0.0
  0
LINE
  5
B5C
330
1F
100
AcDbEntity
  8
SK2
  6
CONTINUOUS
370
25
 62
7
100
AcDbLine
 10
-53.26338375464253
 20
23.9526767509285
 30
0.0
 11
-51.89507563196377
 21
25.32098487360725
 31
0.0
  0
LINE
  5
B5D
330
1F
100
AcDbEntity
  8
SK2
  6
CONTINUOUS
370
25
 62
7
100
AcDbLine
 10
-53.61693714523579
 20
24.02338742904715
 30
0.0
 11
-52.42540571785367
 21
25.21491885642927
 31
0.0
  0
LINE
  5
B5E
330
1F
100
AcDbEntity
  8
SK2
  6
CONTINUOUS
370
25
 62
7
100
AcDbLine
 10
-53.97049053582907
 20
24.09409810716581
 30
0.0
 11
-52.95573580374359
 21
25.10885283925128
 31
0.0
  0
LINE
  5
B5F
330
1F
100
AcDbEntity
  8
SK2
  6
CONTINUOUS
370
25
 62
7
100
AcDbLine
 10
-54.32404392642235
 20
24.16480878528446
 30
0.0
 11
-53.48606588963351
 21
25.0027868220733
 31
0.0
  0
LINE
  5
B60
330
1F
100
AcDbEntity
  8
SK2
  6
CONTINUOUS
370
25
 62
7
100
AcDbLine
 10
-54.67759731701562
 20
24.23551946340312
 30
0.0
 11
-54.01639597552341
 21
24.89672080489532
 31
0.0
  0
LINE
  5
B61
330
1F
100
AcDbEntity
  8
SK2
  6
CONTINUOUS
370
25
 62
7
100
AcDbLine
 10
-55.03115070760889
 20
24.30623014152177
 30
0.0
 11
-54.54672606141333
 21
24.79065478771734
 31
0.0
  0
LINE
  5
B62
330
1F
100
AcDbEntity
  8
SK2
  6
CONTINUOUS
370
25
 62
7
100
AcDbLine
 10
-55.38470409820217
 20
24.37694081964043
 30
0.0
 11
-55.07705614730325
 21
24.68458877053936
 31
0.0
  0
LINE
  5
B63
330
1F
100
AcDbEntity
  8
SK2
  6
CONTINUOUS
370
25
 62
7
100
AcDbLine
 10
-55.73825748879545
 20
24.44765149775908
 30
0.0
 11
-55.60738623319317
 21
24.57852275336137
 31
0.0
  0
LINE
  5
B64
330
1F
100
AcDbEntity
  8
SK2
  6
CONTINUOUS
370
25
 62
7
100
AcDbLine
 10
-55.71953063133211
 20
24.55609387373358
 30
0.0
 11
-55.57929594699817
 21
24.41585918939964
 31
0.0
  0
LINE
  5
B65
330
1F
100
AcDbEntity
  8
SK2
  6
CONTINUOUS
370
25
 62
7
100
AcDbLine
 10
-55.36597724073883
 20
24.62680455185223
 30
0.0
 11
-55.04896586110825
 21
24.30979317222165
 31
0.0
  0
LINE
  5
B66
330
1F
100
AcDbEntity
  8
SK2
  6
CONTINUOUS
370
25
 62
7
100
AcDbLine
 10
-55.01242385014555
 20
24.69751522997089
 30
0.0
 11
-54.51863577521834
 21
24.20372715504367
 31
0.0
  0
LINE
  5
B67
330
1F
100
AcDbEntity
  8
SK2
  6
CONTINUOUS
370
25
 62
7
100
AcDbLine
 10
-54.65887045955228
 20
24.76822590808955
 30
0.0
 11
-53.98830568932842
 21
24.09766113786569
 31
0.0
  0
LINE
  5
B68
330
1F
100
AcDbEntity
  8
SK2
  6
CONTINUOUS
370
25
 62
7
100
AcDbLine
 10
-54.30531706895901
 20
24.8389365862082
 30
0.0
 11
-53.45797560343851
 21
23.9915951206877
 31
0.0
  0
LINE
  5
B69
330
1F
100
AcDbEntity
  8
SK2
  6
CONTINUOUS
370
25
 62
7
100
AcDbLine
 10
-53.95176367836572
 20
24.90964726432685
 30
0.0
 11
-52.92764551754859
 21
23.88552910350972
 31
0.0
  0
LINE
  5
B6A
330
1F
100
AcDbEntity
  8
SK2
  6
CONTINUOUS
370
25
 62
7
100
AcDbLine
 10
-53.59821028777245
 20
24.9803579424455
 30
0.0
 11
-52.39731543165868
 21
23.77946308633174
 31
0.0
  0
LINE
  5
B6B
330
1F
100
AcDbEntity
  8
SK2
  6
CONTINUOUS
370
25
 62
7
100
AcDbLine
 10
-53.24465689717918
 20
25.05106862056417
 30
0.0
 11
-51.86698534576876
 21
23.67339706915375
 31
0.0
  0
LINE
  5
B6C
330
1F
100
AcDbEntity
  8
SK2
  6
CONTINUOUS
370
25
 62
7
100
AcDbLine
 10
-52.8911035065859
 20
25.12177929868282
 30
0.0
 11
-51.33665525987885
 21
23.56733105197577
 31
0.0
  0
LINE
  5
B6D
330
1F
100
AcDbEntity
  8
SK2
  6
CONTINUOUS
370
25
 62
7
100
AcDbLine
 10
-52.53755011599262
 20
25.19248997680148
 30
0.0
 11
-51.0
 21
23.65493986080885
 31
0.0
  0
LINE
  5
B6E
330
1F
100
AcDbEntity
  8
SK2
  6
CONTINUOUS
370
25
 62
7
100
AcDbLine
 10
-52.18399672539934
 20
25.26320065492012
 30
0.0
 11
-51.0
 21
24.07920392952078
 31
0.0
  0
LINE
  5
B6F
330
1F
100
AcDbEntity
  8
SK2
  6
CONTINUOUS
370
25
 62
7
100
AcDbLine
 10
-51.83044333480607
 20
25.33391133303878
 30
0.0
 11
-51.0
 21
24.50346799823271
 31
0.0
  0
LINE
  5
B70
330
1F
100
AcDbEntity
  8
SK2
  6
CONTINUOUS
370
25
 62
7
100
AcDbLine
 10
-51.47688994421279
 20
25.40462201115744
 30
0.0
 11
-51.0
 21
24.92773206694465
 31
0.0
  0
LINE
  5
B71
330
1F
100
AcDbEntity
  8
SK2
  6
CONTINUOUS
370
25
 62
7
100
AcDbLine
 10
-51.12333655361952
 20
25.47533268927609
 30
0.0
 11
-51.0
 21
25.35199613565658
 31
0.0
  0
LINE
  5
B72
330
1F
100
AcDbEntity
  8
SK2
  6
CONTINUOUS
370
25
 62
7
100
AcDbLine
 10
0.0
 20
24.5
 30
0.0
 11
-5.0
 21
23.5
 31
0.0
  0
LINE
  5
B73
330
1F
100
AcDbEntity
  8
SK2
  6
CONTINUOUS
370
25
 62
7
100
AcDbLine
 10
-5.0
 20
23.5
 30
0.0
 11
-5.0
 21
25.5
 31
0.0
  0
LINE
  5
B74
330
1F
100
AcDbEntity
  8
SK2
  6
CONTINUOUS
370
25
 62
7
100
AcDbLine
 10
-5.0
 20
25.5
 30
0.0
 11
0.0
 21
24.5
 31
0.0
  0
LINE
  5
B75
330
1F
100
AcDbEntity
  8
SK2
  6
CONTINUOUS
370
25
 62
7
100
AcDbLine
 10
-0.1341449816147833
 20
24.47317100367705
 30
0.0
 11
-0.0894299877431889
 21
24.51788599754864
 31
0.0
  0
LINE
  5
B76
330
1F
100
AcDbEntity
  8
SK2
  6
CONTINUOUS
370
25
 62
7
100
AcDbLine
 10
-0.6644750675046929
 20
24.36710498649906
 30
0.0
 11
-0.442983378336462
 21
24.58859667566729
 31
0.0
  0
LINE
  5
B77
330
1F
100
AcDbEntity
  8
SK2
  6
CONTINUOUS
370
25
 62
7
100
AcDbLine
 10
-1.194805153394602
 20
24.26103896932108
 30
0.0
 11
-0.796536768929735
 21
24.65930735378595
 31
0.0
  0
LINE
  5
B78
330
1F
100
AcDbEntity
  8
SK2
  6
CONTINUOUS
370
25
 62
7
100
AcDbLine
 10
-1.725135239284511
 20
24.1549729521431
 30
0.0
 11
-1.150090159523008
 21
24.7300180319046
 31
0.0
  0
LINE
  5
B79
330
1F
100
AcDbEntity
  8
SK2
  6
CONTINUOUS
370
25
 62
7
100
AcDbLine
 10
-2.255465325174421
 20
24.04890693496512
 30
0.0
 11
-1.503643550116281
 21
24.80072871002326
 31
0.0
  0
LINE
  5
B7A
330
1F
100
AcDbEntity
  8
SK2
  6
CONTINUOUS
370
25
 62
7
100
AcDbLine
 10
-2.78579541106433
 20
23.94284091778713
 30
0.0
 11
-1.857196940709554
 21
24.87143938814191
 31
0.0
  0
LINE
  5
B7B
330
1F
100
AcDbEntity
  8
SK2
  6
CONTINUOUS
370
25
 62
7
100
AcDbLine
 10
-3.316125496954239
 20
23.83677490060915
 30
0.0
 11
-2.210750331302826
 21
24.94215006626057
 31
0.0
  0
LINE
  5
B7C
330
1F
100
AcDbEntity
  8
SK2
  6
CONTINUOUS
370
25
 62
7
100
AcDbLine
 10
-3.846455582844148
 20
23.73070888343117
 30
0.0
 11
-2.5643037218961
 21
25.01286074437922
 31
0.0
  0
LINE
  5
B7D
330
1F
100
AcDbEntity
  8
SK2
  6
CONTINUOUS
370
25
 62
7
100
AcDbLine
 10
-4.376785668734057
 20
23.62464286625319
 30
0.0
 11
-2.917857112489372
 21
25.08357142249788
 31
0.0
  0
LINE
  5
B7E
330
1F
100
AcDbEntity
  8
SK2
  6
CONTINUOUS
370
25
 62
7
100
AcDbLine
 10
-4.907115754623967
 20
23.51857684907521
 30
0.0
 11
-3.271410503082645
 21
25.15428210061653
 31
0.0
  0
LINE
  5
B7F
330
1F
100
AcDbEntity
  8
SK2
  6
CONTINUOUS
370
25
 62
7
100
AcDbLine
 10
-5.0
 20
23.8499566724111
 30
0.0
 11
-3.624963893675918
 21
25.22499277873519
 31
0.0
  0
LINE
  5
B80
330
1F
100
AcDbEntity
  8
SK2
  6
CONTINUOUS
370
25
 62
7
100
AcDbLine
 10
-5.0
 20
24.27422074112303
 30
0.0
 11
-3.978517284269194
 21
25.29570345685384
 31
0.0
  0
LINE
  5
B81
330
1F
100
AcDbEntity
  8
SK2
  6
CONTINUOUS
370
25
 62
7
100
AcDbLine
 10
-5.0
 20
24.69848480983496
 30
0.0
 11
-4.332070674862466
 21
25.36641413497249
 31
0.0
  0
LINE
  5
B82
330
1F
100
AcDbEntity
  8
SK2
  6
CONTINUOUS
370
25
 62
7
100
AcDbLine
 10
-5.0
 20
25.12274887854689
 30
0.0
 11
-4.685624065455739
 21
25.43712481309115
 31
0.0
  0
LINE
  5
B83
330
1F
100
AcDbEntity
  8
SK2
  6
CONTINUOUS
370
25
 62
7
100
AcDbLine
 10
-5.0
 20
23.66761902332482
 30
0.0
 11
-4.860317480562652
 21
23.52793650388747
 31
0.0
  0
LINE
  5
B84
330
1F
100
AcDbEntity
  8
SK2
  6
CONTINUOUS
370
25
 62
7
100
AcDbLine
 10
-5.0
 20
24.09188309203675
 30
0.0
 11
-4.506764089969379
 21
23.59864718200613
 31
0.0
  0
LINE
  5
B85
330
1F
100
AcDbEntity
  8
SK2
  6
CONTINUOUS
370
25
 62
7
100
AcDbLine
 10
-5.0
 20
24.51614716074867
 30
0.0
 11
-4.153210699376105
 21
23.66935786012478
 31
0.0
  0
LINE
  5
B86
330
1F
100
AcDbEntity
  8
SK2
  6
CONTINUOUS
370
25
 62
7
100
AcDbLine
 10
-5.0
 20
24.9404112294606
 30
0.0
 11
-3.799657308782832
 21
23.74006853824343
 31
0.0
  0
LINE
  5
B87
330
1F
100
AcDbEntity
  8
SK2
  6
CONTINUOUS
370
25
 62
7
100
AcDbLine
 10
-5.0
 20
25.36467529817253
 30
0.0
 11
-3.446103918189558
 21
23.81077921636209
 31
0.0
  0
LINE
  5
B88
330
1F
100
AcDbEntity
  8
SK2
  6
CONTINUOUS
370
25
 62
7
100
AcDbLine
 10
-4.63882579139443
 20
25.42776515827889
 30
0.0
 11
-3.092550527596285
 21
23.88148989448074
 31
0.0
  0
LINE
  5
B89
330
1F
100
AcDbEntity
  8
SK2
  6
CONTINUOUS
370
25
 62
7
100
AcDbLine
 10
-4.108495705504524
 20
25.3216991411009
 30
0.0
 11
-2.738997137003014
 21
23.9522005725994
 31
0.0
  0
LINE
  5
B8A
330
1F
100
AcDbEntity
  8
SK2
  6
CONTINUOUS
370
25
 62
7
100
AcDbLine
 10
-3.578165619614613
 20
25.21563312392292
 30
0.0
 11
-2.385443746409741
 21
24.02291125071805
 31
0.0
  0
LINE
  5
B8B
330
1F
100
AcDbEntity
  8
SK2
  6
CONTINUOUS
370
25
 62
7
100
AcDbLine
 10
-3.047835533724699
 20
25.10956710674494
 30
0.0
 11
-2.031890355816464
 21
24.09362192883671
 31
0.0
  0
LINE
  5
B8C
330
1F
100
AcDbEntity
  8
SK2
  6
CONTINUOUS
370
25
 62
7
100
AcDbLine
 10
-2.517505447834788
 20
25.00350108956696
 30
0.0
 11
-1.678336965223191
 21
24.16433260695536
 31
0.0
  0
LINE
  5
B8D
330
1F
100
AcDbEntity
  8
SK2
  6
CONTINUOUS
370
25
 62
7
100
AcDbLine
 10
-1.987175361944882
 20
24.89743507238898
 30
0.0
 11
-1.32478357462992
 21
24.23504328507402
 31
0.0
  0
LINE
  5
B8E
330
1F
100
AcDbEntity
  8
SK2
  6
CONTINUOUS
370
25
 62
7
100
AcDbLine
 10
-1.456845276054967
 20
24.79136905521099
 30
0.0
 11
-0.9712301840366436
 21
24.30575396319267
 31
0.0
  0
LINE
  5
B8F
330
1F
100
AcDbEntity
  8
SK2
  6
CONTINUOUS
370
25
 62
7
100
AcDbLine
 10
-0.9265151901650603
 20
24.68530303803301
 30
0.0
 11
-0.617676793443373
 21
24.37646464131133
 31
0.0
  0
LINE
  5
B90
330
1F
100
AcDbEntity
  8
SK2
  6
CONTINUOUS
370
25
 62
7
100
AcDbLine
 10
-0.3961851042751495
 20
24.57923702085503
 30
0.0
 11
-0.2641234028500994
 21
24.44717531942998
 31
0.0
  0
TEXT
  5
B91
330
1F
100
AcDbEntity
  8
SK2
  6
CONTINUOUS
370
25
 62
7
100
AcDbText
 10
-30.91666666666667
 20
26.0
 30
0.0
 40
3.5
  1
56
 72
     1
 11
-28.0
 21
26.0
 31
0.0
100
AcDbText
  0
LINE
  5
B92
330
1F
100
AcDbEntity
  8
2
  6
CONTINUOUS
370
25
 62
7
100
AcDbLine
 10
0.0
 20
-12.5
 30
0.0
 11
-0.0000000000000008
 21
-25.5
 31
0.0
  0
LINE
  5
B93
330
1F
100
AcDbEntity
  8
2
  6
CONTINUOUS
370
25
 62
7
100
AcDbLine
 10
0.9999999999999991
 20
-25.5
 30
0.0
 11
0.9999999999999999
 21
-12.5
 31
0.0
  0
LINE
  5
B94
330
1F
100
AcDbEntity
  8
2
  6
CONTINUOUS
370
25
 62
7
100
AcDbLine
 10
-9.975
 20
-24.5
 30
0.0
 11
8.000000000000002
 21
-24.5
 31
0.0
  0
LINE
  5
B95
330
1F
100
AcDbEntity
  8
2
  6
CONTINUOUS
370
25
 62
7
100
AcDbLine
 10
0.0
 20
-24.5
 30
0.0
 11
-5.0
 21
-25.5
 31
0.0
  0
LINE
  5
B96
330
1F
100
AcDbEntity
  8
2
  6
CONTINUOUS
370
25
 62
7
100
AcDbLine
 10
-5.0
 20
-25.5
 30
0.0
 11
-5.0
 21
-23.5
 31
0.0
  0
LINE
  5
B97
330
1F
100
AcDbEntity
  8
2
  6
CONTINUOUS
370
25
 62
7
100
AcDbLine
 10
-5.0
 20
-23.5
 30
0.0
 11
0.0
 21
-24.5
 31
0.0
  0
LINE
  5
B98
330
1F
100
AcDbEntity
  8
2
  6
CONTINUOUS
370
25
 62
7
100
AcDbLine
 10
-0.155092592873296
 20
-24.53101851857466
 30
0.0
 11
-0.1033950619155307
 21
-24.47932098761689
 31
0.0
  0
LINE
  5
B99
330
1F
100
AcDbEntity
  8
2
  6
CONTINUOUS
370
25
 62
7
100
AcDbLine
 10
-0.6854226787632098
 20
-24.63708453575264
 30
0.0
 11
-0.4569484525088066
 21
-24.40861030949824
 31
0.0
  0
LINE
  5
B9A
330
1F
100
AcDbEntity
  8
2
  6
CONTINUOUS
370
25
 62
7
100
AcDbLine
 10
-1.215752764653119
 20
-24.74315055293062
 30
0.0
 11
-0.8105018431020796
 21
-24.33789963137959
 31
0.0
  0
LINE
  5
B9B
330
1F
100
AcDbEntity
  8
2
  6
CONTINUOUS
370
25
 62
7
100
AcDbLine
 10
-1.746082850543029
 20
-24.84921657010861
 30
0.0
 11
-1.164055233695353
 21
-24.26718895326093
 31
0.0
  0
LINE
  5
B9C
330
1F
100
AcDbEntity
  8
2
  6
CONTINUOUS
370
25
 62
7
100
AcDbLine
 10
-2.276412936432938
 20
-24.95528258728659
 30
0.0
 11
-1.517608624288625
 21
-24.19647827514228
 31
0.0
  0
LINE
  5
B9D
330
1F
100
AcDbEntity
  8
2
  6
CONTINUOUS
370
25
 62
7
100
AcDbLine
 10
-2.806743022322847
 20
-25.06134860446457
 30
0.0
 11
-1.871162014881898
 21
-24.12576759702362
 31
0.0
  0
LINE
  5
B9E
330
1F
100
AcDbEntity
  8
2
  6
CONTINUOUS
370
25
 62
7
100
AcDbLine
 10
-3.337073108212756
 20
-25.16741462164255
 30
0.0
 11
-2.224715405475171
 21
-24.05505691890497
 31
0.0
  0
LINE
  5
B9F
330
1F
100
AcDbEntity
  8
2
  6
CONTINUOUS
370
25
 62
7
100
AcDbLine
 10
-3.867403194102665
 20
-25.27348063882053
 30
0.0
 11
-2.578268796068444
 21
-23.98434624078631
 31
0.0
  0
LINE
  5
BA0
330
1F
100
AcDbEntity
  8
2
  6
CONTINUOUS
370
25
 62
7
100
AcDbLine
 10
-4.397733279992575
 20
-25.37954665599851
 30
0.0
 11
-2.931822186661717
 21
-23.91363556266766
 31
0.0
  0
LINE
  5
BA1
330
1F
100
AcDbEntity
  8
2
  6
CONTINUOUS
370
25
 62
7
100
AcDbLine
 10
-4.928063365882482
 20
-25.4856126731765
 30
0.0
 11
-3.28537557725499
 21
-23.842924884549
 31
0.0
  0
LINE
  5
BA2
330
1F
100
AcDbEntity
  8
2
  6
CONTINUOUS
370
25
 62
7
100
AcDbLine
 10
-5.0
 20
-25.13328523858209
 30
0.0
 11
-3.638928967848262
 21
-23.77221420643035
 31
0.0
  0
LINE
  5
BA3
330
1F
100
AcDbEntity
  8
2
  6
CONTINUOUS
370
25
 62
7
100
AcDbLine
 10
-5.0
 20
-24.70902116987016
 30
0.0
 11
-3.992482358441535
 21
-23.70150352831169
 31
0.0
  0
LINE
  5
BA4
330
1F
100
AcDbEntity
  8
2
  6
CONTINUOUS
370
25
 62
7
100
AcDbLine
 10
-5.0
 20
-24.28475710115823
 30
0.0
 11
-4.346035749034808
 21
-23.63079285019304
 31
0.0
  0
LINE
  5
BA5
330
1F
100
AcDbEntity
  8
2
  6
CONTINUOUS
370
25
 62
7
100
AcDbLine
 10
-5.0
 20
-23.8604930324463
 30
0.0
 11
-4.699589139628081
 21
-23.56008217207438
 31
0.0
  0
LINE
  5
BA6
330
1F
100
AcDbEntity
  8
2
  6
CONTINUOUS
370
25
 62
7
100
AcDbLine
 10
-5.0
 20
-25.13328523858208
 30
0.0
 11
-4.694404365485067
 21
-25.43888087309701
 31
0.0
  0
LINE
  5
BA7
330
1F
100
AcDbEntity
  8
2
  6
CONTINUOUS
370
25
 62
7
100
AcDbLine
 10
-5.0
 20
-24.70902116987016
 30
0.0
 11
-4.340850974891796
 21
-25.36817019497836
 31
0.0
  0
LINE
  5
BA8
330
1F
100
AcDbEntity
  8
2
  6
CONTINUOUS
370
25
 62
7
100
AcDbLine
 10
-5.0
 20
-24.28475710115823
 30
0.0
 11
-3.987297584298522
 21
-25.2974595168597
 31
0.0
  0
LINE
  5
BA9
330
1F
100
AcDbEntity
  8
2
  6
CONTINUOUS
370
25
 62
7
100
AcDbLine
 10
-5.0
 20
-23.8604930324463
 30
0.0
 11
-3.633744193705249
 21
-25.22674883874105
 31
0.0
  0
LINE
  5
BAA
330
1F
100
AcDbEntity
  8
2
  6
CONTINUOUS
370
25
 62
7
100
AcDbLine
 10
-4.920286204667963
 20
-23.51594275906641
 30
0.0
 11
-3.280190803111973
 21
-25.15603816062239
 31
0.0
  0
LINE
  5
BAB
330
1F
100
AcDbEntity
  8
2
  6
CONTINUOUS
370
25
 62
7
100
AcDbLine
 10
-4.389956118778052
 20
-23.62200877624439
 30
0.0
 11
-2.926637412518699
 21
-25.08532748250374
 31
0.0
  0
LINE
  5
BAC
330
1F
100
AcDbEntity
  8
2
  6
CONTINUOUS
370
25
 62
7
100
AcDbLine
 10
-3.859626032888141
 20
-23.72807479342237
 30
0.0
 11
-2.573084021925426
 21
-25.01461680438508
 31
0.0
  0
LINE
  5
BAD
330
1F
100
AcDbEntity
  8
2
  6
CONTINUOUS
370
25
 62
7
100
AcDbLine
 10
-3.329295946998235
 20
-23.83414081060035
 30
0.0
 11
-2.219530631332155
 21
-24.94390612626643
 31
0.0
  0
LINE
  5
BAE
330
1F
100
AcDbEntity
  8
2
  6
CONTINUOUS
370
25
 62
7
100
AcDbLine
 10
-2.798965861108324
 20
-23.94020682777834
 30
0.0
 11
-1.865977240738881
 21
-24.87319544814778
 31
0.0
  0
LINE
  5
BAF
330
1F
100
AcDbEntity
  8
2
  6
CONTINUOUS
370
25
 62
7
100
AcDbLine
 10
-2.268635775218414
 20
-24.04627284495632
 30
0.0
 11
-1.512423850145608
 21
-24.80248477002912
 31
0.0
  0
LINE
  5
BB0
330
1F
100
AcDbEntity
  8
2
  6
CONTINUOUS
370
25
 62
7
100
AcDbLine
 10
-1.738305689328503
 20
-24.1523388621343
 30
0.0
 11
-1.158870459552334
 21
-24.73177409191047
 31
0.0
  0
LINE
  5
BB1
330
1F
100
AcDbEntity
  8
2
  6
CONTINUOUS
370
25
 62
7
100
AcDbLine
 10
-1.207975603438592
 20
-24.25840487931228
 30
0.0
 11
-0.8053170689590606
 21
-24.66106341379181
 31
0.0
  0
LINE
  5
BB2
330
1F
100
AcDbEntity
  8
2
  6
CONTINUOUS
370
25
 62
7
100
AcDbLine
 10
-0.6776455175486812
 20
-24.36447089649026
 30
0.0
 11
-0.451763678365787
 21
-24.59035273567316
 31
0.0
  0
LINE
  5
BB3
330
1F
100
AcDbEntity
  8
2
  6
CONTINUOUS
370
25
 62
7
100
AcDbLine
 10
-0.1473154316587703
 20
-24.47053691366824
 30
0.0
 11
-0.0982102877725134
 21
-24.5196420575545
 31
0.0
  0
LINE
  5
BB4
330
1F
100
AcDbEntity
  8
2
  6
CONTINUOUS
370
25
 62
7
100
AcDbLine
 10
0.9999999999999992
 20
-24.5
 30
0.0
 11
5.999999999999999
 21
-23.5
 31
0.0
  0
LINE
  5
BB5
330
1F
100
AcDbEntity
  8
2
  6
CONTINUOUS
370
25
 62
7
100
AcDbLine
 10
5.999999999999999
 20
-23.5
 30
0.0
 11
5.999999999999999
 21
-25.5
 31
0.0
  0
LINE
  5
BB6
330
1F
100
AcDbEntity
  8
2
  6
CONTINUOUS
370
25
 62
7
100
AcDbLine
 10
5.999999999999999
 20
-25.5
 30
0.0
 11
0.9999999999999992
 21
-24.5
 31
0.0
  0
LINE
  5
BB7
330
1F
100
AcDbEntity
  8
2
  6
CONTINUOUS
370
25
 62
7
100
AcDbLine
 10
5.820630917631845
 20
-25.46412618352637
 30
0.0
 11
5.999999999999999
 21
-25.28475710115822
 31
0.0
  0
LINE
  5
BB8
330
1F
100
AcDbEntity
  8
2
  6
CONTINUOUS
370
25
 62
7
100
AcDbLine
 10
5.467077527038572
 20
-25.39341550540772
 30
0.0
 11
5.999999999999999
 21
-24.86049303244629
 31
0.0
  0
LINE
  5
BB9
330
1F
100
AcDbEntity
  8
2
  6
CONTINUOUS
370
25
 62
7
100
AcDbLine
 10
5.113524136445299
 20
-25.32270482728906
 30
0.0
 11
5.999999999999999
 21
-24.43622896373436
 31
0.0
  0
LINE
  5
BBA
330
1F
100
AcDbEntity
  8
2
  6
CONTINUOUS
370
25
 62
7
100
AcDbLine
 10
4.759970745852026
 20
-25.25199414917041
 30
0.0
 11
5.999999999999999
 21
-24.01196489502243
 31
0.0
  0
LINE
  5
BBB
330
1F
100
AcDbEntity
  8
2
  6
CONTINUOUS
370
25
 62
7
100
AcDbLine
 10
4.406417355258752
 20
-25.18128347105175
 30
0.0
 11
5.999999999999999
 21
-23.58770082631051
 31
0.0
  0
LINE
  5
BBC
330
1F
100
AcDbEntity
  8
2
  6
CONTINUOUS
370
25
 62
7
100
AcDbLine
 10
4.05286396466548
 20
-25.1105727929331
 30
0.0
 11
5.579295946998224
 21
-23.58414081060035
 31
0.0
  0
LINE
  5
BBD
330
1F
100
AcDbEntity
  8
2
  6
CONTINUOUS
370
25
 62
7
100
AcDbLine
 10
3.699310574072207
 20
-25.03986211481444
 30
0.0
 11
5.048965861108313
 21
-23.69020682777834
 31
0.0
  0
LINE
  5
BBE
330
1F
100
AcDbEntity
  8
2
  6
CONTINUOUS
370
25
 62
7
100
AcDbLine
 10
3.345757183478934
 20
-24.96915143669579
 30
0.0
 11
4.518635775218404
 21
-23.79627284495632
 31
0.0
  0
LINE
  5
BBF
330
1F
100
AcDbEntity
  8
2
  6
CONTINUOUS
370
25
 62
7
100
AcDbLine
 10
2.992203792885661
 20
-24.89844075857713
 30
0.0
 11
3.988305689328494
 21
-23.9023388621343
 31
0.0
  0
LINE
  5
BC0
330
1F
100
AcDbEntity
  8
2
  6
CONTINUOUS
370
25
 62
7
100
AcDbLine
 10
2.638650402292388
 20
-24.82773008045848
 30
0.0
 11
3.457975603438585
 21
-24.00840487931228
 31
0.0
  0
LINE
  5
BC1
330
1F
100
AcDbEntity
  8
2
  6
CONTINUOUS
370
25
 62
7
100
AcDbLine
 10
2.285097011699111
 20
-24.75701940233982
 30
0.0
 11
2.92764551754867
 21
-24.11447089649026
 31
0.0
  0
LINE
  5
BC2
330
1F
100
AcDbEntity
  8
2
  6
CONTINUOUS
370
25
 62
7
100
AcDbLine
 10
1.931543621105838
 20
-24.68630872422117
 30
0.0
 11
2.39731543165876
 21
-24.22053691366825
 31
0.0
  0
LINE
  5
BC3
330
1F
100
AcDbEntity
  8
2
  6
CONTINUOUS
370
25
 62
7
100
AcDbLine
 10
1.577990230512565
 20
-24.61559804610251
 30
0.0
 11
1.86698534576885
 21
-24.32660293084623
 31
0.0
  0
LINE
  5
BC4
330
1F
100
AcDbEntity
  8
2
  6
CONTINUOUS
370
25
 62
7
100
AcDbLine
 10
1.224436839919292
 20
-24.54488736798386
 30
0.0
 11
1.33665525987894
 21
-24.43266894802421
 31
0.0
  0
LINE
  5
BC5
330
1F
100
AcDbEntity
  8
2
  6
CONTINUOUS
370
25
 62
7
100
AcDbLine
 10
1.229621614062307
 20
-24.45407567718754
 30
0.0
 11
1.344432421093462
 21
-24.56888648421869
 31
0.0
  0
LINE
  5
BC6
330
1F
100
AcDbEntity
  8
2
  6
CONTINUOUS
370
25
 62
7
100
AcDbLine
 10
1.58317500465558
 20
-24.38336499906888
 30
0.0
 11
1.874762506983372
 21
-24.67495250139667
 31
0.0
  0
LINE
  5
BC7
330
1F
100
AcDbEntity
  8
2
  6
CONTINUOUS
370
25
 62
7
100
AcDbLine
 10
1.936728395248853
 20
-24.31265432095023
 30
0.0
 11
2.405092592873282
 21
-24.78101851857466
 31
0.0
  0
LINE
  5
BC8
330
1F
100
AcDbEntity
  8
2
  6
CONTINUOUS
370
25
 62
7
100
AcDbLine
 10
2.290281785842127
 20
-24.24194364283157
 30
0.0
 11
2.935422678763193
 21
-24.88708453575264
 31
0.0
  0
LINE
  5
BC9
330
1F
100
AcDbEntity
  8
2
  6
CONTINUOUS
370
25
 62
7
100
AcDbLine
 10
2.6438351764354
 20
-24.17123296471292
 30
0.0
 11
3.465752764653103
 21
-24.99315055293062
 31
0.0
  0
LINE
  5
BCA
330
1F
100
AcDbEntity
  8
2
  6
CONTINUOUS
370
25
 62
7
100
AcDbLine
 10
2.997388567028674
 20
-24.10052228659427
 30
0.0
 11
3.996082850543013
 21
-25.0992165701086
 31
0.0
  0
LINE
  5
BCB
330
1F
100
AcDbEntity
  8
2
  6
CONTINUOUS
370
25
 62
7
100
AcDbLine
 10
3.350941957621946
 20
-24.02981160847561
 30
0.0
 11
4.526412936432924
 21
-25.20528258728659
 31
0.0
  0
LINE
  5
BCC
330
1F
100
AcDbEntity
  8
2
  6
CONTINUOUS
370
25
 62
7
100
AcDbLine
 10
3.70449534821522
 20
-23.95910093035695
 30
0.0
 11
5.056743022322834
 21
-25.31134860446457
 31
0.0
  0
LINE
  5
BCD
330
1F
100
AcDbEntity
  8
2
  6
CONTINUOUS
370
25
 62
7
100
AcDbLine
 10
4.058048738808493
 20
-23.8883902522383
 30
0.0
 11
5.587073108212744
 21
-25.41741462164255
 31
0.0
  0
LINE
  5
BCE
330
1F
100
AcDbEntity
  8
2
  6
CONTINUOUS
370
25
 62
7
100
AcDbLine
 10
4.411602129401767
 20
-23.81767957411964
 30
0.0
 11
5.999999999999999
 21
-25.40607744471788
 31
0.0
  0
LINE
  5
BCF
330
1F
100
AcDbEntity
  8
2
  6
CONTINUOUS
370
25
 62
7
100
AcDbLine
 10
4.76515551999504
 20
-23.74696889600099
 30
0.0
 11
5.999999999999999
 21
-24.98181337600595
 31
0.0
  0
LINE
  5
BD0
330
1F
100
AcDbEntity
  8
2
  6
CONTINUOUS
370
25
 62
7
100
AcDbLine
 10
5.118708910588313
 20
-23.67625821788234
 30
0.0
 11
5.999999999999999
 21
-24.55754930729402
 31
0.0
  0
LINE
  5
BD1
330
1F
100
AcDbEntity
  8
2
  6
CONTINUOUS
370
25
 62
7
100
AcDbLine
 10
5.472262301181585
 20
-23.60554753976368
 30
0.0
 11
5.999999999999999
 21
-24.1332852385821
 31
0.0
  0
LINE
  5
BD2
330
1F
100
AcDbEntity
  8
2
  6
CONTINUOUS
370
25
 62
7
100
AcDbLine
 10
5.825815691774859
 20
-23.53483686164503
 30
0.0
 11
5.999999999999999
 21
-23.70902116987017
 31
0.0
  0
TEXT
  5
BD3
330
1F
100
AcDbEntity
  8
2
  6
CONTINUOUS
370
25
 62
7
100
AcDbText
 10
-8.070833333333335
 20
-23.0
 30
0.0
 40
3.5
  1
1
 72
     1
 11
-7.487500000000001
 21
-23.0
 31
0.0
100
AcDbText
  0
LINE
  5
BD4
330
1F
100
AcDbEntity
  8
2
  6
CONTINUOUS
370
25
 62
7
100
AcDbLine
 10
97.0
 20
-12.5
 30
0.0
 11
114.0
 21
-12.5
 31
0.0
  0
LINE
  5
BD5
330
1F
100
AcDbEntity
  8
2
  6
CONTINUOUS
370
25
 62
7
100
AcDbLine
 10
114.0
 20
12.5
 30
0.0
 11
97.0
 21
12.5
 31
0.0
  0
LINE
  5
BD6
330
1F
100
AcDbEntity
  8
2
  6
CONTINUOUS
370
25
 62
7
100
AcDbLine
 10
113.0
 20
-12.5
 30
0.0
 11
113.0
 21
12.5
 31
0.0
  0
LINE
  5
BD7
330
1F
100
AcDbEntity
  8
2
  6
CONTINUOUS
370
25
 62
7
100
AcDbLine
 10
113.0
 20
-12.5
 30
0.0
 11
112.0
 21
-7.500000000000002
 31
0.0
  0
LINE
  5
BD8
330
1F
100
AcDbEntity
  8
2
  6
CONTINUOUS
370
25
 62
7
100
AcDbLine
 10
112.0
 20
-7.500000000000002
 30
0.0
 11
114.0
 21
-7.500000000000002
 31
0.0
  0
LINE
  5
BD9
330
1F
100
AcDbEntity
  8
2
  6
CONTINUOUS
370
25
 62
7
100
AcDbLine
 10
114.0
 20
-7.500000000000002
 30
0.0
 11
113.0
 21
-12.5
 31
0.0
  0
LINE
  5
BDA
330
1F
100
AcDbEntity
  8
2
  6
CONTINUOUS
370
25
 62
7
100
AcDbLine
 10
112.9835129287103
 20
-12.41756464355166
 30
0.0
 11
113.0247306069345
 21
-12.3763469653275
 31
0.0
  0
LINE
  5
BDB
330
1F
100
AcDbEntity
  8
2
  6
CONTINUOUS
370
25
 62
7
100
AcDbLine
 10
112.9128022505917
 20
-12.06401125295838
 30
0.0
 11
113.1307966241125
 21
-11.8460168794376
 31
0.0
  0
LINE
  5
BDC
330
1F
100
AcDbEntity
  8
2
  6
CONTINUOUS
370
25
 62
7
100
AcDbLine
 10
112.842091572473
 20
-11.71045786236512
 30
0.0
 11
113.2368626412905
 21
-11.31568679354768
 31
0.0
  0
LINE
  5
BDD
330
1F
100
AcDbEntity
  8
2
  6
CONTINUOUS
370
25
 62
7
100
AcDbLine
 10
112.7713808943544
 20
-11.35690447177186
 30
0.0
 11
113.3429286584684
 21
-10.78535670765778
 31
0.0
  0
LINE
  5
BDE
330
1F
100
AcDbEntity
  8
2
  6
CONTINUOUS
370
25
 62
7
100
AcDbLine
 10
112.7006702162357
 20
-11.00335108117858
 30
0.0
 11
113.4489946756464
 21
-10.25502662176788
 31
0.0
  0
LINE
  5
BDF
330
1F
100
AcDbEntity
  8
2
  6
CONTINUOUS
370
25
 62
7
100
AcDbLine
 10
112.6299595381171
 20
-10.6497976905853
 30
0.0
 11
113.5550606928244
 21
-9.724696535877982
 31
0.0
  0
LINE
  5
BE0
330
1F
100
AcDbEntity
  8
2
  6
CONTINUOUS
370
25
 62
7
100
AcDbLine
 10
112.5592488599984
 20
-10.29624429999204
 30
0.0
 11
113.6611267100024
 21
-9.194366449988081
 31
0.0
  0
LINE
  5
BE1
330
1F
100
AcDbEntity
  8
2
  6
CONTINUOUS
370
25
 62
7
100
AcDbLine
 10
112.4885381818797
 20
-9.942690909398777
 30
0.0
 11
113.7671927271804
 21
-8.664036364098166
 31
0.0
  0
LINE
  5
BE2
330
1F
100
AcDbEntity
  8
2
  6
CONTINUOUS
370
25
 62
7
100
AcDbLine
 10
112.4178275037611
 20
-9.5891375188055
 30
0.0
 11
113.8732587443583
 21
-8.133706278208265
 31
0.0
  0
LINE
  5
BE3
330
1F
100
AcDbEntity
  8
2
  6
CONTINUOUS
370
25
 62
7
100
AcDbLine
 10
112.3471168256424
 20
-9.235584128212238
 30
0.0
 11
113.9793247615363
 21
-7.603376192318365
 31
0.0
  0
LINE
  5
BE4
330
1F
100
AcDbEntity
  8
2
  6
CONTINUOUS
370
25
 62
7
100
AcDbLine
 10
112.2764061475238
 20
-8.882030737618948
 30
0.0
 11
113.6584368851427
 21
-7.5
 31
0.0
  0
LINE
  5
BE5
330
1F
100
AcDbEntity
  8
2
  6
CONTINUOUS
370
25
 62
7
100
AcDbLine
 10
112.2056954694051
 20
-8.528477347025685
 30
0.0
 11
113.2341728164308
 21
-7.5
 31
0.0
  0
LINE
  5
BE6
330
1F
100
AcDbEntity
  8
2
  6
CONTINUOUS
370
25
 62
7
100
AcDbLine
 10
112.1349847912865
 20
-8.174923956432409
 30
0.0
 11
112.8099087477189
 21
-7.5
 31
0.0
  0
LINE
  5
BE7
330
1F
100
AcDbEntity
  8
2
  6
CONTINUOUS
370
25
 62
7
100
AcDbLine
 10
112.0642741131678
 20
-7.82137056583916
 30
0.0
 11
112.385644679007
 21
-7.5
 31
0.0
  0
LINE
  5
BE8
330
1F
100
AcDbEntity
  8
2
  6
CONTINUOUS
370
25
 62
7
100
AcDbLine
 10
112.9873539288181
 20
-12.43676964409042
 30
0.0
 11
113.0084307141213
 21
-12.45784642939363
 31
0.0
  0
LINE
  5
BE9
330
1F
100
AcDbEntity
  8
2
  6
CONTINUOUS
370
25
 62
7
100
AcDbLine
 10
112.8812879116401
 20
-11.90643955820055
 30
0.0
 11
113.0791413922399
 21
-12.10429303880036
 31
0.0
  0
LINE
  5
BEA
330
1F
100
AcDbEntity
  8
2
  6
CONTINUOUS
370
25
 62
7
100
AcDbLine
 10
112.7752218944621
 20
-11.37610947231062
 30
0.0
 11
113.1498520703586
 21
-11.75073964820709
 31
0.0
  0
LINE
  5
BEB
330
1F
100
AcDbEntity
  8
2
  6
CONTINUOUS
370
25
 62
7
100
AcDbLine
 10
112.6691558772841
 20
-10.84577938642072
 30
0.0
 11
113.2205627484772
 21
-11.39718625761381
 31
0.0
  0
LINE
  5
BEC
330
1F
100
AcDbEntity
  8
2
  6
CONTINUOUS
370
25
 62
7
100
AcDbLine
 10
112.5630898601062
 20
-10.31544930053082
 30
0.0
 11
113.2912734265959
 21
-11.04363286702052
 31
0.0
  0
LINE
  5
BED
330
1F
100
AcDbEntity
  8
2
  6
CONTINUOUS
370
25
 62
7
100
AcDbLine
 10
112.4570238429282
 20
-9.785119214640886
 30
0.0
 11
113.3619841047146
 21
-10.69007947642726
 31
0.0
  0
LINE
  5
BEE
330
1F
100
AcDbEntity
  8
2
  6
CONTINUOUS
370
25
 62
7
100
AcDbLine
 10
112.3509578257502
 20
-9.254789128751
 30
0.0
 11
113.4326947828332
 21
-10.33652608583398
 31
0.0
  0
LINE
  5
BEF
330
1F
100
AcDbEntity
  8
2
  6
CONTINUOUS
370
25
 62
7
100
AcDbLine
 10
112.2448918085722
 20
-8.724459042861085
 30
0.0
 11
113.5034054609519
 21
-9.982972695240719
 31
0.0
  0
LINE
  5
BF0
330
1F
100
AcDbEntity
  8
2
  6
CONTINUOUS
370
25
 62
7
100
AcDbLine
 10
112.1388257913942
 20
-8.19412895697117
 30
0.0
 11
113.5741161390705
 21
-9.629419304647442
 31
0.0
  0
LINE
  5
BF1
330
1F
100
AcDbEntity
  8
2
  6
CONTINUOUS
370
25
 62
7
100
AcDbLine
 10
112.0327597742162
 20
-7.663798871081255
 30
0.0
 11
113.6448268171892
 21
-9.275865914054165
 31
0.0
  0
LINE
  5
BF2
330
1F
100
AcDbEntity
  8
2
  6
CONTINUOUS
370
25
 62
7
100
AcDbLine
 10
112.2932249718469
 20
-7.5
 30
0.0
 11
113.7155374953078
 21
-8.922312523460917
 31
0.0
  0
LINE
  5
BF3
330
1F
100
AcDbEntity
  8
2
  6
CONTINUOUS
370
25
 62
7
100
AcDbLine
 10
112.7174890405588
 20
-7.5
 30
0.0
 11
113.7862481734265
 21
-8.56875913286764
 31
0.0
  0
LINE
  5
BF4
330
1F
100
AcDbEntity
  8
2
  6
CONTINUOUS
370
25
 62
7
100
AcDbLine
 10
113.1417531092708
 20
-7.5
 30
0.0
 11
113.8569588515451
 21
-8.215205742274364
 31
0.0
  0
LINE
  5
BF5
330
1F
100
AcDbEntity
  8
2
  6
CONTINUOUS
370
25
 62
7
100
AcDbLine
 10
113.5660171779827
 20
-7.5
 30
0.0
 11
113.9276695296638
 21
-7.861652351681101
 31
0.0
  0
LINE
  5
BF6
330
1F
100
AcDbEntity
  8
2
  6
CONTINUOUS
370
25
 62
7
100
AcDbLine
 10
113.9902812466946
 20
-7.5
 30
0.0
 11
113.9983802077824
 21
-7.508098961087811
 31
0.0
  0
LINE
  5
BF7
330
1F
100
AcDbEntity
  8
2
  6
CONTINUOUS
370
25
 62
7
100
AcDbLine
 10
113.0
 20
12.5
 30
0.0
 11
114.0
 21
7.499999999999998
 31
0.0
  0
LINE
  5
BF8
330
1F
100
AcDbEntity
  8
2
  6
CONTINUOUS
370
25
 62
7
100
AcDbLine
 10
114.0
 20
7.499999999999998
 30
0.0
 11
112.0
 21
7.499999999999998
 31
0.0
  0
LINE
  5
BF9
330
1F
100
AcDbEntity
  8
2
  6
CONTINUOUS
370
25
 62
7
100
AcDbLine
 10
112.0
 20
7.499999999999998
 30
0.0
 11
113.0
 21
12.5
 31
0.0
  0
LINE
  5
BFA
330
1F
100
AcDbEntity
  8
2
  6
CONTINUOUS
370
25
 62
7
100
AcDbLine
 10
113.6900169391463
 20
7.5
 30
0.0
 11
113.9483361565244
 21
7.758319217378059
 31
0.0
  0
LINE
  5
BFB
330
1F
100
AcDbEntity
  8
2
  6
CONTINUOUS
370
25
 62
7
100
AcDbLine
 10
113.2657528704344
 20
7.5
 30
0.0
 11
113.8776254784057
 21
8.111872607971335
 31
0.0
  0
LINE
  5
BFC
330
1F
100
AcDbEntity
  8
2
  6
CONTINUOUS
370
25
 62
7
100
AcDbLine
 10
112.8414888017225
 20
7.5
 30
0.0
 11
113.8069148002871
 21
8.465425998564612
 31
0.0
  0
LINE
  5
BFD
330
1F
100
AcDbEntity
  8
2
  6
CONTINUOUS
370
25
 62
7
100
AcDbLine
 10
112.4172247330105
 20
7.5
 30
0.0
 11
113.7362041221684
 21
8.818979389157874
 31
0.0
  0
LINE
  5
BFE
330
1F
100
AcDbEntity
  8
2
  6
CONTINUOUS
370
25
 62
7
100
AcDbLine
 10
112.0017598339253
 20
7.508799169626727
 30
0.0
 11
113.6654934440498
 21
9.172532779751151
 31
0.0
  0
LINE
  5
BFF
330
1F
100
AcDbEntity
  8
2
  6
CONTINUOUS
370
25
 62
7
100
AcDbLine
 10
112.1078258511033
 20
8.039129255516656
 30
0.0
 11
113.5947827659311
 21
9.526086170344414
 31
0.0
  0
LINE
  5
C00
330
1F
100
AcDbEntity
  8
2
  6
CONTINUOUS
370
25
 62
7
100
AcDbLine
 10
112.2138918682813
 20
8.569459341406557
 30
0.0
 11
113.5240720878125
 21
9.87963956093769
 31
0.0
  0
LINE
  5
C01
330
1F
100
AcDbEntity
  8
2
  6
CONTINUOUS
370
25
 62
7
100
AcDbLine
 10
112.3199578854593
 20
9.099789427296457
 30
0.0
 11
113.4533614096938
 21
10.23319295153095
 31
0.0
  0
LINE
  5
C02
330
1F
100
AcDbEntity
  8
2
  6
CONTINUOUS
370
25
 62
7
100
AcDbLine
 10
112.4260239026373
 20
9.630119513186358
 30
0.0
 11
113.3826507315752
 21
10.58674634212423
 31
0.0
  0
LINE
  5
C03
330
1F
100
AcDbEntity
  8
2
  6
CONTINUOUS
370
25
 62
7
100
AcDbLine
 10
112.5320899198153
 20
10.16044959907627
 30
0.0
 11
113.3119400534565
 21
10.94029973271751
 31
0.0
  0
LINE
  5
C04
330
1F
100
AcDbEntity
  8
2
  6
CONTINUOUS
370
25
 62
7
100
AcDbLine
 10
112.6381559369932
 20
10.69077968496617
 30
0.0
 11
113.2412293753378
 21
11.29385312331075
 31
0.0
  0
LINE
  5
C05
330
1F
100
AcDbEntity
  8
2
  6
CONTINUOUS
370
25
 62
7
100
AcDbLine
 10
112.7442219541712
 20
11.22110977085607
 30
0.0
 11
113.1705186972192
 21
11.64740651390403
 31
0.0
  0
LINE
  5
C06
330
1F
100
AcDbEntity
  8
2
  6
CONTINUOUS
370
25
 62
7
100
AcDbLine
 10
112.8502879713492
 20
11.75143985674598
 30
0.0
 11
113.0998080191005
 21
12.00095990449731
 31
0.0
  0
LINE
  5
C07
330
1F
100
AcDbEntity
  8
2
  6
CONTINUOUS
370
25
 62
7
100
AcDbLine
 10
112.9563539885272
 20
12.28176994263589
 30
0.0
 11
113.0290973409819
 21
12.35451329509058
 31
0.0
  0
LINE
  5
C08
330
1F
100
AcDbEntity
  8
2
  6
CONTINUOUS
370
25
 62
7
100
AcDbLine
 10
112.0237445627941
 20
7.618722813970223
 30
0.0
 11
112.1424673767643
 21
7.5
 31
0.0
  0
LINE
  5
C09
330
1F
100
AcDbEntity
  8
2
  6
CONTINUOUS
370
25
 62
7
100
AcDbLine
 10
112.0944552409127
 20
7.972276204563499
 30
0.0
 11
112.5667314454762
 21
7.5
 31
0.0
  0
LINE
  5
C0A
330
1F
100
AcDbEntity
  8
2
  6
CONTINUOUS
370
25
 62
7
100
AcDbLine
 10
112.1651659190314
 20
8.325829595156748
 30
0.0
 11
112.9909955141881
 21
7.5
 31
0.0
  0
LINE
  5
C0B
330
1F
100
AcDbEntity
  8
2
  6
CONTINUOUS
370
25
 62
7
100
AcDbLine
 10
112.23587659715
 20
8.679382985750038
 30
0.0
 11
113.4152595829
 21
7.5
 31
0.0
  0
LINE
  5
C0C
330
1F
100
AcDbEntity
  8
2
  6
CONTINUOUS
370
25
 62
7
100
AcDbLine
 10
112.3065872752687
 20
9.0329363763433
 30
0.0
 11
113.839523651612
 21
7.5
 31
0.0
  0
LINE
  5
C0D
330
1F
100
AcDbEntity
  8
2
  6
CONTINUOUS
370
25
 62
7
100
AcDbLine
 10
112.3772979533873
 20
9.386489766936592
 30
0.0
 11
113.934053069919
 21
7.829734650404873
 31
0.0
  0
LINE
  5
C0E
330
1F
100
AcDbEntity
  8
2
  6
CONTINUOUS
370
25
 62
7
100
AcDbLine
 10
112.448008631506
 20
9.740043157529868
 30
0.0
 11
113.827987052741
 21
8.360064736294802
 31
0.0
  0
LINE
  5
C0F
330
1F
100
AcDbEntity
  8
2
  6
CONTINUOUS
370
25
 62
7
100
AcDbLine
 10
112.5187193096246
 20
10.09359654812314
 30
0.0
 11
113.7219210355631
 21
8.890394822184689
 31
0.0
  0
LINE
  5
C10
330
1F
100
AcDbEntity
  8
2
  6
CONTINUOUS
370
25
 62
7
100
AcDbLine
 10
112.5894299877433
 20
10.44714993871638
 30
0.0
 11
113.6158550183851
 21
9.420724908074618
 31
0.0
  0
LINE
  5
C11
330
1F
100
AcDbEntity
  8
2
  6
CONTINUOUS
370
25
 62
7
100
AcDbLine
 10
112.6601406658619
 20
10.80070332930964
 30
0.0
 11
113.5097890012071
 21
9.951054993964505
 31
0.0
  0
LINE
  5
C12
330
1F
100
AcDbEntity
  8
2
  6
CONTINUOUS
370
25
 62
7
100
AcDbLine
 10
112.7308513439806
 20
11.15425671990292
 30
0.0
 11
113.4037229840291
 21
10.48138507985439
 31
0.0
  0
LINE
  5
C13
330
1F
100
AcDbEntity
  8
2
  6
CONTINUOUS
370
25
 62
7
100
AcDbLine
 10
112.8015620220992
 20
11.50781011049619
 30
0.0
 11
113.2976569668511
 21
11.01171516574432
 31
0.0
  0
LINE
  5
C14
330
1F
100
AcDbEntity
  8
2
  6
CONTINUOUS
370
25
 62
7
100
AcDbLine
 10
112.8722727002179
 20
11.86136350108947
 30
0.0
 11
113.1915909496732
 21
11.54204525163421
 31
0.0
  0
LINE
  5
C15
330
1F
100
AcDbEntity
  8
2
  6
CONTINUOUS
370
25
 62
7
100
AcDbLine
 10
112.9429833783365
 20
12.21491689168273
 30
0.0
 11
113.0855249324952
 21
12.07237533752411
 31
0.0
  0
TEXT
  5
C16
330
1F
100
AcDbEntity
  8
2
  6
CONTINUOUS
370
25
 62
7
100
AcDbText
 10
111.5
 20
-0.641666666666667
 30
0.0
 40
3.5
  1
25
 50
90.0
 72
     1
 11
111.5
 21
2.275
 31
0.0
100
AcDbText
  0
CIRCLE
  5
C17
330
1F
100
AcDbEntity
  8
2
  6
CONTINUOUS
370
25
 62
7
100
AcDbCircle
 10
109.75
 20
-2.625
 30
0.0
 40
1.4
  0
LINE
  5
C18
330
1F
100
AcDbEntity
  8
2
  6
CONTINUOUS
370
25
 62
7
100
AcDbLine
 10
111.15
 20
-4.024999999999999
 30
0.0
 11
108.35
 21
-1.224999999999999
 31
0.0
  0
LINE
  5
C19
330
1F
100
AcDbEntity
  8
2
  6
CONTINUOUS
370
25
 62
7
100
AcDbLine
 10
74.0
 20
-11.99995
 30
0.0
 11
39.16
 21
-11.99995
 31
0.0
  0
LINE
  5
C1A
330
1F
100
AcDbEntity
  8
2
  6
CONTINUOUS
370
25
 62
7
100
AcDbLine
 10
39.16
 20
11.99995
 30
0.0
 11
74.0
 21
11.99995
 31
0.0
  0
LINE
  5
C1B
330
1F
100
AcDbEntity
  8
2
  6
CONTINUOUS
370
25
 62
7
100
AcDbLine
 10
40.16
 20
-11.99995
 30
0.0
 11
40.16
 21
11.99995
 31
0.0
  0
LINE
  5
C1C
330
1F
100
AcDbEntity
  8
2
  6
CONTINUOUS
370
25
 62
7
100
AcDbLine
 10
40.16
 20
-11.99995
 30
0.0
 11
39.16
 21
-6.999949999999997
 31
0.0
  0
LINE
  5
C1D
330
1F
100
AcDbEntity
  8
2
  6
CONTINUOUS
370
25
 62
7
100
AcDbLine
 10
39.16
 20
-6.999949999999997
 30
0.0
 11
41.16
 21
-6.999949999999997
 31
0.0
  0
LINE
  5
C1E
330
1F
100
AcDbEntity
  8
2
  6
CONTINUOUS
370
25
 62
7
100
AcDbLine
 10
41.16
 20
-6.999949999999997
 30
0.0
 11
40.16
 21
-11.99995
 31
0.0
  0
LINE
  5
C1F
330
1F
100
AcDbEntity
  8
2
  6
CONTINUOUS
370
25
 62
7
100
AcDbLine
 10
40.153118576571
 20
-11.96554288285499
 30
0.0
 11
40.17032213514349
 21
-11.94833932428249
 31
0.0
  0
LINE
  5
C20
330
1F
100
AcDbEntity
  8
2
  6
CONTINUOUS
370
25
 62
7
100
AcDbLine
 10
40.08240789845235
 20
-11.61198949226171
 30
0.0
 11
40.27638815232147
 21
-11.41800923839258
 31
0.0
  0
LINE
  5
C21
330
1F
100
AcDbEntity
  8
2
  6
CONTINUOUS
370
25
 62
7
100
AcDbLine
 10
40.01169722033369
 20
-11.25843610166844
 30
0.0
 11
40.38245416949946
 21
-10.88767915250266
 31
0.0
  0
LINE
  5
C22
330
1F
100
AcDbEntity
  8
2
  6
CONTINUOUS
370
25
 62
7
100
AcDbLine
 10
39.94098654221504
 20
-10.90488271107516
 30
0.0
 11
40.48852018667744
 21
-10.35734906661276
 31
0.0
  0
LINE
  5
C23
330
1F
100
AcDbEntity
  8
2
  6
CONTINUOUS
370
25
 62
7
100
AcDbLine
 10
39.87027586409638
 20
-10.55132932048188
 30
0.0
 11
40.59458620385543
 21
-9.827018980722833
 31
0.0
  0
LINE
  5
C24
330
1F
100
AcDbEntity
  8
2
  6
CONTINUOUS
370
25
 62
7
100
AcDbLine
 10
39.79956518597772
 20
-10.19777592988861
 30
0.0
 11
40.70065222103341
 21
-9.296688894832918
 31
0.0
  0
LINE
  5
C25
330
1F
100
AcDbEntity
  8
2
  6
CONTINUOUS
370
25
 62
7
100
AcDbLine
 10
39.72885450785907
 20
-9.84422253929533
 30
0.0
 11
40.80671823821139
 21
-8.76635880894301
 31
0.0
  0
LINE
  5
C26
330
1F
100
AcDbEntity
  8
2
  6
CONTINUOUS
370
25
 62
7
100
AcDbLine
 10
39.65814382974042
 20
-9.490669148702054
 30
0.0
 11
40.91278425538937
 21
-8.236028723053103
 31
0.0
  0
LINE
  5
C27
330
1F
100
AcDbEntity
  8
2
  6
CONTINUOUS
370
25
 62
7
100
AcDbLine
 10
39.58743315162176
 20
-9.137115758108777
 30
0.0
 11
41.01885027256736
 21
-7.705698637163181
 31
0.0
  0
LINE
  5
C28
330
1F
100
AcDbEntity
  8
2
  6
CONTINUOUS
370
25
 62
7
100
AcDbLine
 10
39.5167224735031
 20
-8.7835623675155
 30
0.0
 11
41.12491628974534
 21
-7.175368551273259
 31
0.0
  0
LINE
  5
C29
330
1F
100
AcDbEntity
  8
2
  6
CONTINUOUS
370
25
 62
7
100
AcDbLine
 10
39.44601179538444
 20
-8.430008976922231
 30
0.0
 11
40.87607077230668
 21
-6.999949999999998
 31
0.0
  0
LINE
  5
C2A
330
1F
100
AcDbEntity
  8
2
  6
CONTINUOUS
370
25
 62
7
100
AcDbLine
 10
39.37530111726579
 20
-8.076455586328947
 30
0.0
 11
40.45180670359473
 21
-6.999949999999998
 31
0.0
  0
LINE
  5
C2B
330
1F
100
AcDbEntity
  8
2
  6
CONTINUOUS
370
25
 62
7
100
AcDbLine
 10
39.30459043914714
 20
-7.722902195735671
 30
0.0
 11
40.02754263488281
 21
-6.999949999999998
 31
0.0
  0
LINE
  5
C2C
330
1F
100
AcDbEntity
  8
2
  6
CONTINUOUS
370
25
 62
7
100
AcDbLine
 10
39.23387976102848
 20
-7.369348805142401
 30
0.0
 11
39.60327856617089
 21
-6.999949999999998
 31
0.0
  0
LINE
  5
C2D
330
1F
100
AcDbEntity
  8
2
  6
CONTINUOUS
370
25
 62
7
100
AcDbLine
 10
39.16316908290982
 20
-7.015795414549125
 30
0.0
 11
39.17901449745895
 21
-6.999949999999998
 31
0.0
  0
LINE
  5
C2E
330
1F
100
AcDbEntity
  8
2
  6
CONTINUOUS
370
25
 62
7
100
AcDbLine
 10
40.0935893490752
 20
-11.66789674537597
 30
0.0
 11
40.2042737672832
 21
-11.77858116358397
 31
0.0
  0
LINE
  5
C2F
330
1F
100
AcDbEntity
  8
2
  6
CONTINUOUS
370
25
 62
7
100
AcDbLine
 10
39.98752333189721
 20
-11.13756665948605
 30
0.0
 11
40.27498444540186
 21
-11.4250277729907
 31
0.0
  0
LINE
  5
C30
330
1F
100
AcDbEntity
  8
2
  6
CONTINUOUS
370
25
 62
7
100
AcDbLine
 10
39.88145731471922
 20
-10.60723657359613
 30
0.0
 11
40.34569512352051
 21
-11.07147438239742
 31
0.0
  0
LINE
  5
C31
330
1F
100
AcDbEntity
  8
2
  6
CONTINUOUS
370
25
 62
7
100
AcDbLine
 10
39.77539129754125
 20
-10.07690648770622
 30
0.0
 11
40.41640580163916
 21
-10.71792099180414
 31
0.0
  0
LINE
  5
C32
330
1F
100
AcDbEntity
  8
2
  6
CONTINUOUS
370
25
 62
7
100
AcDbLine
 10
39.66932528036327
 20
-9.54657640181631
 30
0.0
 11
40.48711647975782
 21
-10.36436760121086
 31
0.0
  0
LINE
  5
C33
330
1F
100
AcDbEntity
  8
2
  6
CONTINUOUS
370
25
 62
7
100
AcDbLine
 10
39.56325926318528
 20
-9.016246315926391
 30
0.0
 11
40.55782715787647
 21
-10.01081421061759
 31
0.0
  0
LINE
  5
C34
330
1F
100
AcDbEntity
  8
2
  6
CONTINUOUS
370
25
 62
7
100
AcDbLine
 10
39.45719324600729
 20
-8.485916230036473
 30
0.0
 11
40.62853783599513
 21
-9.657260820024312
 31
0.0
  0
LINE
  5
C35
330
1F
100
AcDbEntity
  8
2
  6
CONTINUOUS
370
25
 62
7
100
AcDbLine
 10
39.35112722882931
 20
-7.955586144146558
 30
0.0
 11
40.69924851411378
 21
-9.303707429431029
 31
0.0
  0
LINE
  5
C36
330
1F
100
AcDbEntity
  8
2
  6
CONTINUOUS
370
25
 62
7
100
AcDbLine
 10
39.24506121165133
 20
-7.42525605825664
 30
0.0
 11
40.76995919223244
 21
-8.950154038837756
 31
0.0
  0
LINE
  5
C37
330
1F
100
AcDbEntity
  8
2
  6
CONTINUOUS
370
25
 62
7
100
AcDbLine
 10
39.24401922210662
 20
-6.999949999999998
 30
0.0
 11
40.8406698703511
 21
-8.596600648244483
 31
0.0
  0
LINE
  5
C38
330
1F
100
AcDbEntity
  8
2
  6
CONTINUOUS
370
25
 62
7
100
AcDbLine
 10
39.66828329081855
 20
-6.999949999999998
 30
0.0
 11
40.91138054846976
 21
-8.243047257651206
 31
0.0
  0
LINE
  5
C39
330
1F
100
AcDbEntity
  8
2
  6
CONTINUOUS
370
25
 62
7
100
AcDbLine
 10
40.09254735953048
 20
-6.999949999999998
 30
0.0
 11
40.98209122658841
 21
-7.889493867057929
 31
0.0
  0
LINE
  5
C3A
330
1F
100
AcDbEntity
  8
2
  6
CONTINUOUS
370
25
 62
7
100
AcDbLine
 10
40.51681142824241
 20
-6.999949999999998
 30
0.0
 11
41.05280190470706
 21
-7.535940476464646
 31
0.0
  0
LINE
  5
C3B
330
1F
100
AcDbEntity
  8
2
  6
CONTINUOUS
370
25
 62
7
100
AcDbLine
 10
40.94107549695433
 20
-6.999949999999998
 30
0.0
 11
41.12351258282572
 21
-7.182387085871383
 31
0.0
  0
LINE
  5
C3C
330
1F
100
AcDbEntity
  8
2
  6
CONTINUOUS
370
25
 62
7
100
AcDbLine
 10
40.16
 20
11.99995
 30
0.0
 11
41.16
 21
6.999950000000004
 31
0.0
  0
LINE
  5
C3D
330
1F
100
AcDbEntity
  8
2
  6
CONTINUOUS
370
25
 62
7
100
AcDbLine
 10
41.16
 20
6.999950000000004
 30
0.0
 11
39.16
 21
6.999950000000004
 31
0.0
  0
LINE
  5
C3E
330
1F
100
AcDbEntity
  8
2
  6
CONTINUOUS
370
25
 62
7
100
AcDbLine
 10
39.16
 20
6.999950000000004
 30
0.0
 11
40.16
 21
11.99995
 31
0.0
  0
LINE
  5
C3F
330
1F
100
AcDbEntity
  8
2
  6
CONTINUOUS
370
25
 62
7
100
AcDbLine
 10
41.05922268888662
 20
6.999950000000005
 30
0.0
 11
41.1432037814811
 21
7.083931092594483
 31
0.0
  0
LINE
  5
C40
330
1F
100
AcDbEntity
  8
2
  6
CONTINUOUS
370
25
 62
7
100
AcDbLine
 10
40.63495862017469
 20
6.999950000000005
 30
0.0
 11
41.07249310336245
 21
7.437484483187767
 31
0.0
  0
LINE
  5
C41
330
1F
100
AcDbEntity
  8
2
  6
CONTINUOUS
370
25
 62
7
100
AcDbLine
 10
40.21069455146276
 20
6.999950000000005
 30
0.0
 11
41.00178242524379
 21
7.791037873781036
 31
0.0
  0
LINE
  5
C42
330
1F
100
AcDbEntity
  8
2
  6
CONTINUOUS
370
25
 62
7
100
AcDbLine
 10
39.78643048275082
 20
6.999950000000005
 30
0.0
 11
40.93107174712514
 21
8.14459126437432
 31
0.0
  0
LINE
  5
C43
330
1F
100
AcDbEntity
  8
2
  6
CONTINUOUS
370
25
 62
7
100
AcDbLine
 10
39.3621664140389
 20
6.999950000000005
 30
0.0
 11
40.86036106900648
 21
8.49814465496759
 31
0.0
  0
LINE
  5
C44
330
1F
100
AcDbEntity
  8
2
  6
CONTINUOUS
370
25
 62
7
100
AcDbLine
 10
39.21552441366826
 20
7.2775720683413
 30
0.0
 11
40.78965039088782
 21
8.851698045560866
 31
0.0
  0
LINE
  5
C45
330
1F
100
AcDbEntity
  8
2
  6
CONTINUOUS
370
25
 62
7
100
AcDbLine
 10
39.32159043084624
 20
7.807902154231208
 30
0.0
 11
40.71893971276917
 21
9.205251436154143
 31
0.0
  0
LINE
  5
C46
330
1F
100
AcDbEntity
  8
2
  6
CONTINUOUS
370
25
 62
7
100
AcDbLine
 10
39.42765644802422
 20
8.33823224012113
 30
0.0
 11
40.64822903465051
 21
9.55880482674742
 31
0.0
  0
LINE
  5
C47
330
1F
100
AcDbEntity
  8
2
  6
CONTINUOUS
370
25
 62
7
100
AcDbLine
 10
39.5337224652022
 20
8.868562326011038
 30
0.0
 11
40.57751835653186
 21
9.912358217340696
 31
0.0
  0
LINE
  5
C48
330
1F
100
AcDbEntity
  8
2
  6
CONTINUOUS
370
25
 62
7
100
AcDbLine
 10
39.63978848238018
 20
9.398892411900952
 30
0.0
 11
40.5068076784132
 21
10.26591160793397
 31
0.0
  0
LINE
  5
C49
330
1F
100
AcDbEntity
  8
2
  6
CONTINUOUS
370
25
 62
7
100
AcDbLine
 10
39.74585449955817
 20
9.929222497790867
 30
0.0
 11
40.43609700029455
 21
10.61946499852724
 31
0.0
  0
LINE
  5
C4A
330
1F
100
AcDbEntity
  8
2
  6
CONTINUOUS
370
25
 62
7
100
AcDbLine
 10
39.85192051673615
 20
10.45955258368078
 30
0.0
 11
40.36538632217589
 21
10.97301838912053
 31
0.0
  0
LINE
  5
C4B
330
1F
100
AcDbEntity
  8
2
  6
CONTINUOUS
370
25
 62
7
100
AcDbLine
 10
39.95798653391414
 20
10.9898826695707
 30
0.0
 11
40.29467564405724
 21
11.3265717797138
 31
0.0
  0
LINE
  5
C4C
330
1F
100
AcDbEntity
  8
2
  6
CONTINUOUS
370
25
 62
7
100
AcDbLine
 10
40.06405255109212
 20
11.52021275546061
 30
0.0
 11
40.22396496593858
 21
11.68012517030708
 31
0.0
  0
LINE
  5
C4D
330
1F
100
AcDbEntity
  8
2
  6
CONTINUOUS
370
25
 62
7
100
AcDbLine
 10
39.17413891493336
 20
7.070644574666829
 30
0.0
 11
39.24483348960018
 21
6.999950000000005
 31
0.0
  0
LINE
  5
C4E
330
1F
100
AcDbEntity
  8
2
  6
CONTINUOUS
370
25
 62
7
100
AcDbLine
 10
39.24484959305202
 20
7.424197965260106
 30
0.0
 11
39.66909755831212
 21
6.999950000000005
 31
0.0
  0
LINE
  5
C4F
330
1F
100
AcDbEntity
  8
2
  6
CONTINUOUS
370
25
 62
7
100
AcDbLine
 10
39.31556027117067
 20
7.777751355853376
 30
0.0
 11
40.09336162702404
 21
6.999950000000005
 31
0.0
  0
LINE
  5
C50
330
1F
100
AcDbEntity
  8
2
  6
CONTINUOUS
370
25
 62
7
100
AcDbLine
 10
39.38627094928933
 20
8.13130474644666
 30
0.0
 11
40.51762569573598
 21
6.999950000000005
 31
0.0
  0
LINE
  5
C51
330
1F
100
AcDbEntity
  8
2
  6
CONTINUOUS
370
25
 62
7
100
AcDbLine
 10
39.45698162740798
 20
8.484858137039936
 30
0.0
 11
40.94188976444791
 21
6.999950000000005
 31
0.0
  0
LINE
  5
C52
330
1F
100
AcDbEntity
  8
2
  6
CONTINUOUS
370
25
 62
7
100
AcDbLine
 10
39.52769230552664
 20
8.838411527633205
 30
0.0
 11
41.10846154171004
 21
7.257642291449805
 31
0.0
  0
LINE
  5
C53
330
1F
100
AcDbEntity
  8
2
  6
CONTINUOUS
370
25
 62
7
100
AcDbLine
 10
39.59840298364529
 20
9.191964918226489
 30
0.0
 11
41.00239552453206
 21
7.787972377339727
 31
0.0
  0
LINE
  5
C54
330
1F
100
AcDbEntity
  8
2
  6
CONTINUOUS
370
25
 62
7
100
AcDbLine
 10
39.66911366176394
 20
9.545518308819766
 30
0.0
 11
40.89632950735407
 21
8.318302463229635
 31
0.0
  0
LINE
  5
C55
330
1F
100
AcDbEntity
  8
2
  6
CONTINUOUS
370
25
 62
7
100
AcDbLine
 10
39.7398243398826
 20
9.899071699413042
 30
0.0
 11
40.79026349017609
 21
8.848632549119543
 31
0.0
  0
LINE
  5
C56
330
1F
100
AcDbEntity
  8
2
  6
CONTINUOUS
370
25
 62
7
100
AcDbLine
 10
39.81053501800125
 20
10.25262509000631
 30
0.0
 11
40.68419747299811
 21
9.37896263500945
 31
0.0
  0
LINE
  5
C57
330
1F
100
AcDbEntity
  8
2
  6
CONTINUOUS
370
25
 62
7
100
AcDbLine
 10
39.88124569611992
 20
10.60617848059958
 30
0.0
 11
40.57813145582011
 21
9.909292720899394
 31
0.0
  0
LINE
  5
C58
330
1F
100
AcDbEntity
  8
2
  6
CONTINUOUS
370
25
 62
7
100
AcDbLine
 10
39.95195637423857
 20
10.95973187119287
 30
0.0
 11
40.47206543864213
 21
10.43962280678931
 31
0.0
  0
LINE
  5
C59
330
1F
100
AcDbEntity
  8
2
  6
CONTINUOUS
370
25
 62
7
100
AcDbLine
 10
40.02266705235722
 20
11.31328526178615
 30
0.0
 11
40.36599942146415
 21
10.96995289267922
 31
0.0
  0
LINE
  5
C5A
330
1F
100
AcDbEntity
  8
2
  6
CONTINUOUS
370
25
 62
7
100
AcDbLine
 10
40.09337773047588
 20
11.66683865237942
 30
0.0
 11
40.25993340428617
 21
11.50028297856913
 31
0.0
  0
TEXT
  5
C5B
330
1F
100
AcDbEntity
  8
2
  6
CONTINUOUS
370
25
 62
7
100
AcDbText
 10
38.66
 20
-0.641666666666667
 30
0.0
 40
3.5
  1
24
 50
90.0
 72
     1
 11
38.66
 21
2.275
 31
0.0
100
AcDbText
  0
CIRCLE
  5
C5C
330
1F
100
AcDbEntity
  8
2
  6
CONTINUOUS
370
25
 62
7
100
AcDbCircle
 10
36.91
 20
-2.625
 30
0.0
 40
1.4
  0
LINE
  5
C5D
330
1F
100
AcDbEntity
  8
2
  6
CONTINUOUS
370
25
 62
7
100
AcDbLine
 10
38.31
 20
-4.024999999999999
 30
0.0
 11
35.51
 21
-1.224999999999999
 31
0.0
  0
LINE
  5
C5E
330
1F
100
AcDbEntity
  8
2
  6
CONTINUOUS
370
25
 62
7
100
AcDbLine
 10
74.0
 20
-12.5
 30
0.0
 11
74.0
 21
-35.5
 31
0.0
  0
LINE
  5
C5F
330
1F
100
AcDbEntity
  8
2
  6
CONTINUOUS
370
25
 62
7
100
AcDbLine
 10
101.0
 20
-35.5
 30
0.0
 11
101.0
 21
-8.5
 31
0.0
  0
LINE
  5
C60
330
1F
100
AcDbEntity
  8
2
  6
CONTINUOUS
370
25
 62
7
100
AcDbLine
 10
74.0
 20
-34.5
 30
0.0
 11
101.0
 21
-34.5
 31
0.0
  0
LINE
  5
C61
330
1F
100
AcDbEntity
  8
2
  6
CONTINUOUS
370
25
 62
7
100
AcDbLine
 10
74.0
 20
-34.5
 30
0.0
 11
79.0
 21
-33.5
 31
0.0
  0
LINE
  5
C62
330
1F
100
AcDbEntity
  8
2
  6
CONTINUOUS
370
25
 62
7
100
AcDbLine
 10
79.0
 20
-33.5
 30
0.0
 11
79.0
 21
-35.5
 31
0.0
  0
LINE
  5
C63
330
1F
100
AcDbEntity
  8
2
  6
CONTINUOUS
370
25
 62
7
100
AcDbLine
 10
79.0
 20
-35.5
 30
0.0
 11
74.0
 21
-34.5
 31
0.0
  0
LINE
  5
C64
330
1F
100
AcDbEntity
  8
2
  6
CONTINUOUS
370
25
 62
7
100
AcDbLine
 10
78.69083302801663
 20
-35.43816660560333
 30
0.0
 11
79.0
 21
-35.12899963361996
 31
0.0
  0
LINE
  5
C65
330
1F
100
AcDbEntity
  8
2
  6
CONTINUOUS
370
25
 62
7
100
AcDbLine
 10
78.33727963742336
 20
-35.36745592748467
 30
0.0
 11
79.0
 21
-34.70473556490803
 31
0.0
  0
LINE
  5
C66
330
1F
100
AcDbEntity
  8
2
  6
CONTINUOUS
370
25
 62
7
100
AcDbLine
 10
77.98372624683007
 20
-35.29674524936603
 30
0.0
 11
79.0
 21
-34.2804714961961
 31
0.0
  0
LINE
  5
C67
330
1F
100
AcDbEntity
  8
2
  6
CONTINUOUS
370
25
 62
7
100
AcDbLine
 10
77.63017285623681
 20
-35.22603457124738
 30
0.0
 11
79.0
 21
-33.85620742748419
 31
0.0
  0
LINE
  5
C68
330
1F
100
AcDbEntity
  8
2
  6
CONTINUOUS
370
25
 62
7
100
AcDbLine
 10
77.27661946564355
 20
-35.1553238931287
 30
0.0
 11
78.91492919846532
 21
-33.51701416030694
 31
0.0
  0
LINE
  5
C69
330
1F
100
AcDbEntity
  8
2
  6
CONTINUOUS
370
25
 62
7
100
AcDbLine
 10
76.92306607505027
 20
-35.08461321501005
 30
0.0
 11
78.3845991125754
 21
-33.62308017748492
 31
0.0
  0
LINE
  5
C6A
330
1F
100
AcDbEntity
  8
2
  6
CONTINUOUS
370
25
 62
7
100
AcDbLine
 10
76.569512684457
 20
-35.01390253689142
 30
0.0
 11
77.85426902668553
 21
-33.72914619466289
 31
0.0
  0
LINE
  5
C6B
330
1F
100
AcDbEntity
  8
2
  6
CONTINUOUS
370
25
 62
7
100
AcDbLine
 10
76.21595929386373
 20
-34.94319185877275
 30
0.0
 11
77.32393894079561
 21
-33.83521221184087
 31
0.0
  0
LINE
  5
C6C
330
1F
100
AcDbEntity
  8
2
  6
CONTINUOUS
370
25
 62
7
100
AcDbLine
 10
75.86240590327046
 20
-34.87248118065411
 30
0.0
 11
76.7936088549057
 21
-33.94127822901886
 31
0.0
  0
LINE
  5
C6D
330
1F
100
AcDbEntity
  8
2
  6
CONTINUOUS
370
25
 62
7
100
AcDbLine
 10
75.5088525126772
 20
-34.80177050253545
 30
0.0
 11
76.2632787690158
 21
-34.04734424619684
 31
0.0
  0
LINE
  5
C6E
330
1F
100
AcDbEntity
  8
2
  6
CONTINUOUS
370
25
 62
7
100
AcDbLine
 10
75.1552991220839
 20
-34.73105982441679
 30
0.0
 11
75.73294868312588
 21
-34.15341026337482
 31
0.0
  0
LINE
  5
C6F
330
1F
100
AcDbEntity
  8
2
  6
CONTINUOUS
370
25
 62
7
100
AcDbLine
 10
74.80174573149063
 20
-34.66034914629815
 30
0.0
 11
75.20261859723597
 21
-34.2594762805528
 31
0.0
  0
LINE
  5
C70
330
1F
100
AcDbEntity
  8
2
  6
CONTINUOUS
370
25
 62
7
100
AcDbLine
 10
74.44819234089736
 20
-34.58963846817947
 30
0.0
 11
74.67228851134605
 21
-34.36554229773078
 31
0.0
  0
LINE
  5
C71
330
1F
100
AcDbEntity
  8
2
  6
CONTINUOUS
370
25
 62
7
100
AcDbLine
 10
74.09463895030409
 20
-34.51892779006083
 30
0.0
 11
74.14195842545615
 21
-34.47160831490876
 31
0.0
  0
LINE
  5
C72
330
1F
100
AcDbEntity
  8
2
  6
CONTINUOUS
370
25
 62
7
100
AcDbLine
 10
74.31735204910152
 20
-34.43652959017969
 30
0.0
 11
74.47602807365229
 21
-34.59520561473046
 31
0.0
  0
LINE
  5
C73
330
1F
100
AcDbEntity
  8
2
  6
CONTINUOUS
370
25
 62
7
100
AcDbLine
 10
74.67090543969479
 20
-34.36581891206104
 30
0.0
 11
75.0063581595422
 21
-34.70127163190843
 31
0.0
  0
LINE
  5
C74
330
1F
100
AcDbEntity
  8
2
  6
CONTINUOUS
370
25
 62
7
100
AcDbLine
 10
75.02445883028807
 20
-34.29510823394239
 30
0.0
 11
75.5366882454321
 21
-34.80733764908642
 31
0.0
  0
LINE
  5
C75
330
1F
100
AcDbEntity
  8
2
  6
CONTINUOUS
370
25
 62
7
100
AcDbLine
 10
75.37801222088135
 20
-34.22439755582373
 30
0.0
 11
76.06701833132202
 21
-34.9134036662644
 31
0.0
  0
LINE
  5
C76
330
1F
100
AcDbEntity
  8
2
  6
CONTINUOUS
370
25
 62
7
100
AcDbLine
 10
75.73156561147461
 20
-34.15368687770507
 30
0.0
 11
76.59734841721193
 21
-35.0194696834424
 31
0.0
  0
LINE
  5
C77
330
1F
100
AcDbEntity
  8
2
  6
CONTINUOUS
370
25
 62
7
100
AcDbLine
 10
76.08511900206787
 20
-34.08297619958642
 30
0.0
 11
77.12767850310182
 21
-35.12553570062035
 31
0.0
  0
LINE
  5
C78
330
1F
100
AcDbEntity
  8
2
  6
CONTINUOUS
370
25
 62
7
100
AcDbLine
 10
76.43867239266116
 20
-34.01226552146777
 30
0.0
 11
77.65800858899175
 21
-35.23160171779834
 31
0.0
  0
LINE
  5
C79
330
1F
100
AcDbEntity
  8
2
  6
CONTINUOUS
370
25
 62
7
100
AcDbLine
 10
76.79222578325442
 20
-33.94155484334911
 30
0.0
 11
78.18833867488166
 21
-35.33766773497634
 31
0.0
  0
LINE
  5
C7A
330
1F
100
AcDbEntity
  8
2
  6
CONTINUOUS
370
25
 62
7
100
AcDbLine
 10
77.1457791738477
 20
-33.87084416523045
 30
0.0
 11
78.71866876077158
 21
-35.44373375215433
 31
0.0
  0
LINE
  5
C7B
330
1F
100
AcDbEntity
  8
2
  6
CONTINUOUS
370
25
 62
7
100
AcDbLine
 10
77.49933256444096
 20
-33.80013348711179
 30
0.0
 11
79.0
 21
-35.30080092267082
 31
0.0
  0
LINE
  5
C7C
330
1F
100
AcDbEntity
  8
2
  6
CONTINUOUS
370
25
 62
7
100
AcDbLine
 10
77.85288595503424
 20
-33.72942280899315
 30
0.0
 11
79.0
 21
-34.8765368539589
 31
0.0
  0
LINE
  5
C7D
330
1F
100
AcDbEntity
  8
2
  6
CONTINUOUS
370
25
 62
7
100
AcDbLine
 10
78.20643934562752
 20
-33.65871213087449
 30
0.0
 11
79.0
 21
-34.45227278524696
 31
0.0
  0
LINE
  5
C7E
330
1F
100
AcDbEntity
  8
2
  6
CONTINUOUS
370
25
 62
7
100
AcDbLine
 10
78.55999273622078
 20
-33.58800145275583
 30
0.0
 11
79.0
 21
-34.02800871653506
 31
0.0
  0
LINE
  5
C7F
330
1F
100
AcDbEntity
  8
2
  6
CONTINUOUS
370
25
 62
7
100
AcDbLine
 10
78.91354612681405
 20
-33.51729077463718
 30
0.0
 11
79.0
 21
-33.60374464782313
 31
0.0
  0
LINE
  5
C80
330
1F
100
AcDbEntity
  8
2
  6
CONTINUOUS
370
25
 62
7
100
AcDbLine
 10
101.0
 20
-34.5
 30
0.0
 11
96.0
 21
-35.5
 31
0.0
  0
LINE
  5
C81
330
1F
100
AcDbEntity
  8
2
  6
CONTINUOUS
370
25
 62
7
100
AcDbLine
 10
96.0
 20
-35.5
 30
0.0
 11
96.0
 21
-33.5
 31
0.0
  0
LINE
  5
C82
330
1F
100
AcDbEntity
  8
2
  6
CONTINUOUS
370
25
 62
7
100
AcDbLine
 10
96.0
 20
-33.5
 30
0.0
 11
101.0
 21
-34.5
 31
0.0
  0
LINE
  5
C83
330
1F
100
AcDbEntity
  8
2
  6
CONTINUOUS
370
25
 62
7
100
AcDbLine
 10
100.6484249039696
 20
-34.57031501920606
 30
0.0
 11
100.7656166026464
 21
-34.45312332052929
 31
0.0
  0
LINE
  5
C84
330
1F
100
AcDbEntity
  8
2
  6
CONTINUOUS
370
25
 62
7
100
AcDbLine
 10
100.1180948180798
 20
-34.67638103638404
 30
0.0
 11
100.4120632120532
 21
-34.38241264241063
 31
0.0
  0
LINE
  5
C85
330
1F
100
AcDbEntity
  8
2
  6
CONTINUOUS
370
25
 62
7
100
AcDbLine
 10
99.58776473218985
 20
-34.78244705356204
 30
0.0
 11
100.0585098214599
 21
-34.31170196429198
 31
0.0
  0
LINE
  5
C86
330
1F
100
AcDbEntity
  8
2
  6
CONTINUOUS
370
25
 62
7
100
AcDbLine
 10
99.05743464629992
 20
-34.88851307074003
 30
0.0
 11
99.70495643086663
 21
-34.24099128617333
 31
0.0
  0
LINE
  5
C87
330
1F
100
AcDbEntity
  8
2
  6
CONTINUOUS
370
25
 62
7
100
AcDbLine
 10
98.52710456041001
 20
-34.994579087918
 30
0.0
 11
99.35140304027334
 21
-34.17028060805467
 31
0.0
  0
LINE
  5
C88
330
1F
100
AcDbEntity
  8
2
  6
CONTINUOUS
370
25
 62
7
100
AcDbLine
 10
97.99677447452012
 20
-35.10064510509598
 30
0.0
 11
98.99784964968008
 21
-34.09956992993602
 31
0.0
  0
LINE
  5
C89
330
1F
100
AcDbEntity
  8
2
  6
CONTINUOUS
370
25
 62
7
100
AcDbLine
 10
97.46644438863022
 20
-35.20671112227396
 30
0.0
 11
98.64429625908683
 21
-34.02885925181735
 31
0.0
  0
LINE
  5
C8A
330
1F
100
AcDbEntity
  8
2
  6
CONTINUOUS
370
25
 62
7
100
AcDbLine
 10
96.9361143027403
 20
-35.31277713945195
 30
0.0
 11
98.29074286849355
 21
-33.95814857369869
 31
0.0
  0
LINE
  5
C8B
330
1F
100
AcDbEntity
  8
2
  6
CONTINUOUS
370
25
 62
7
100
AcDbLine
 10
96.40578421685038
 20
-35.41884315662992
 30
0.0
 11
97.93718947790025
 21
-33.88743789558005
 31
0.0
  0
LINE
  5
C8C
330
1F
100
AcDbEntity
  8
2
  6
CONTINUOUS
370
25
 62
7
100
AcDbLine
 10
96.0
 20
-35.40036330476839
 30
0.0
 11
97.583636087307
 21
-33.81672721746139
 31
0.0
  0
LINE
  5
C8D
330
1F
100
AcDbEntity
  8
2
  6
CONTINUOUS
370
25
 62
7
100
AcDbLine
 10
96.0
 20
-34.97609923605647
 30
0.0
 11
97.23008269671374
 21
-33.74601653934273
 31
0.0
  0
LINE
  5
C8E
330
1F
100
AcDbEntity
  8
2
  6
CONTINUOUS
370
25
 62
7
100
AcDbLine
 10
96.0
 20
-34.55183516734452
 30
0.0
 11
96.87652930612043
 21
-33.6753058612241
 31
0.0
  0
LINE
  5
C8F
330
1F
100
AcDbEntity
  8
2
  6
CONTINUOUS
370
25
 62
7
100
AcDbLine
 10
96.0
 20
-34.12757109863259
 30
0.0
 11
96.52297591552716
 21
-33.60459518310543
 31
0.0
  0
LINE
  5
C90
330
1F
100
AcDbEntity
  8
2
  6
CONTINUOUS
370
25
 62
7
100
AcDbLine
 10
96.0
 20
-33.70330702992067
 30
0.0
 11
96.1694225249339
 21
-33.53388450498677
 31
0.0
  0
LINE
  5
C91
330
1F
100
AcDbEntity
  8
2
  6
CONTINUOUS
370
25
 62
7
100
AcDbLine
 10
96.0
 20
-35.33023817419357
 30
0.0
 11
96.14146818817203
 21
-35.47170636236559
 31
0.0
  0
LINE
  5
C92
330
1F
100
AcDbEntity
  8
2
  6
CONTINUOUS
370
25
 62
7
100
AcDbLine
 10
96.0
 20
-34.90597410548165
 30
0.0
 11
96.4950215787653
 21
-35.40099568424695
 31
0.0
  0
LINE
  5
C93
330
1F
100
AcDbEntity
  8
2
  6
CONTINUOUS
370
25
 62
7
100
AcDbLine
 10
96.0
 20
-34.48171003676973
 30
0.0
 11
96.84857496935857
 21
-35.33028500612829
 31
0.0
  0
LINE
  5
C94
330
1F
100
AcDbEntity
  8
2
  6
CONTINUOUS
370
25
 62
7
100
AcDbLine
 10
96.0
 20
-34.0574459680578
 30
0.0
 11
97.20212835995184
 21
-35.25957432800963
 31
0.0
  0
LINE
  5
C95
330
1F
100
AcDbEntity
  8
2
  6
CONTINUOUS
370
25
 62
7
100
AcDbLine
 10
96.0
 20
-33.63318189934589
 30
0.0
 11
97.55568175054512
 21
-35.18886364989099
 31
0.0
  0
LINE
  5
C96
330
1F
100
AcDbEntity
  8
2
  6
CONTINUOUS
370
25
 62
7
100
AcDbLine
 10
96.36385271170755
 20
-33.5727705423415
 30
0.0
 11
97.90923514113838
 21
-35.11815297177233
 31
0.0
  0
LINE
  5
C97
330
1F
100
AcDbEntity
  8
2
  6
CONTINUOUS
370
25
 62
7
100
AcDbLine
 10
96.89418279759747
 20
-33.6788365595195
 30
0.0
 11
98.26278853173164
 21
-35.04744229365366
 31
0.0
  0
LINE
  5
C98
330
1F
100
AcDbEntity
  8
2
  6
CONTINUOUS
370
25
 62
7
100
AcDbLine
 10
97.4245128834874
 20
-33.7849025766975
 30
0.0
 11
98.61634192232492
 21
-34.97673161553501
 31
0.0
  0
LINE
  5
C99
330
1F
100
AcDbEntity
  8
2
  6
CONTINUOUS
370
25
 62
7
100
AcDbLine
 10
97.95484296937728
 20
-33.89096859387544
 30
0.0
 11
98.96989531291821
 21
-34.90602093741637
 31
0.0
  0
LINE
  5
C9A
330
1F
100
AcDbEntity
  8
2
  6
CONTINUOUS
370
25
 62
7
100
AcDbLine
 10
98.48517305526721
 20
-33.99703461105345
 30
0.0
 11
99.32344870351147
 21
-34.8353102592977
 31
0.0
  0
LINE
  5
C9B
330
1F
100
AcDbEntity
  8
2
  6
CONTINUOUS
370
25
 62
7
100
AcDbLine
 10
99.01550314115711
 20
-34.10310062823142
 30
0.0
 11
99.67700209410474
 21
-34.76459958117904
 31
0.0
  0
LINE
  5
C9C
330
1F
100
AcDbEntity
  8
2
  6
CONTINUOUS
370
25
 62
7
100
AcDbLine
 10
99.54583322704701
 20
-34.2091666454094
 30
0.0
 11
100.030555484698
 21
-34.69388890306041
 31
0.0
  0
LINE
  5
C9D
330
1F
100
AcDbEntity
  8
2
  6
CONTINUOUS
370
25
 62
7
100
AcDbLine
 10
100.0761633129369
 20
-34.31523266258738
 30
0.0
 11
100.3841088752913
 21
-34.62317822494174
 31
0.0
  0
LINE
  5
C9E
330
1F
100
AcDbEntity
  8
2
  6
CONTINUOUS
370
25
 62
7
100
AcDbLine
 10
100.6064933988268
 20
-34.42129867976537
 30
0.0
 11
100.7376622658846
 21
-34.5524675468231
 31
0.0
  0
TEXT
  5
C9F
330
1F
100
AcDbEntity
  8
2
  6
CONTINUOUS
370
25
 62
7
100
AcDbText
 10
84.58333333333333
 20
-33.0
 30
0.0
 40
3.5
  1
27
 72
     1
 11
87.5
 21
-33.0
 31
0.0
100
AcDbText
  0
LINE
  5
CA0
330
1F
100
AcDbEntity
  8
2
  6
CONTINUOUS
370
25
 62
7
100
AcDbLine
 10
0.0
 20
12.5
 30
0.0
 11
0.0000000000000013
 21
32.95
 31
0.0
  0
LINE
  5
CA1
330
1F
100
AcDbEntity
  8
2
  6
CONTINUOUS
370
25
 62
7
100
AcDbLine
 10
101.0
 20
32.95
 30
0.0
 11
101.0
 21
8.500000000000004
 31
0.0
  0
LINE
  5
CA2
330
1F
100
AcDbEntity
  8
2
  6
CONTINUOUS
370
25
 62
7
100
AcDbLine
 10
0.0
 20
31.95
 30
0.0
 11
101.0
 21
31.95
 31
0.0
  0
LINE
  5
CA3
330
1F
100
AcDbEntity
  8
2
  6
CONTINUOUS
370
25
 62
7
100
AcDbLine
 10
0.0
 20
31.95
 30
0.0
 11
5.0
 21
32.95
 31
0.0
  0
LINE
  5
CA4
330
1F
100
AcDbEntity
  8
2
  6
CONTINUOUS
370
25
 62
7
100
AcDbLine
 10
5.0
 20
32.95
 30
0.0
 11
5.0
 21
30.95
 31
0.0
  0
LINE
  5
CA5
330
1F
100
AcDbEntity
  8
2
  6
CONTINUOUS
370
25
 62
7
100
AcDbLine
 10
5.0
 20
30.95
 30
0.0
 11
0.0
 21
31.95
 31
0.0
  0
LINE
  5
CA6
330
1F
100
AcDbEntity
  8
2
  6
CONTINUOUS
370
25
 62
7
100
AcDbLine
 10
4.704689783217066
 20
31.00906204335659
 30
0.0
 11
5.0
 21
31.30437226013952
 31
0.0
  0
LINE
  5
CA7
330
1F
100
AcDbEntity
  8
2
  6
CONTINUOUS
370
25
 62
7
100
AcDbLine
 10
4.351136392623792
 20
31.07977272147524
 30
0.0
 11
5.0
 21
31.72863632885145
 31
0.0
  0
LINE
  5
CA8
330
1F
100
AcDbEntity
  8
2
  6
CONTINUOUS
370
25
 62
7
100
AcDbLine
 10
3.997583002030518
 20
31.1504833995939
 30
0.0
 11
5.0
 21
32.15290039756339
 31
0.0
  0
LINE
  5
CA9
330
1F
100
AcDbEntity
  8
2
  6
CONTINUOUS
370
25
 62
7
100
AcDbLine
 10
3.644029611437241
 20
31.22119407771255
 30
0.0
 11
5.0
 21
32.57716446627531
 31
0.0
  0
LINE
  5
CAA
330
1F
100
AcDbEntity
  8
2
  6
CONTINUOUS
370
25
 62
7
100
AcDbLine
 10
3.290476220843968
 20
31.29190475583121
 30
0.0
 11
4.935714331265947
 21
32.93714286625319
 31
0.0
  0
LINE
  5
CAB
330
1F
100
AcDbEntity
  8
2
  6
CONTINUOUS
370
25
 62
7
100
AcDbLine
 10
2.936922830250695
 20
31.36261543394986
 30
0.0
 11
4.405384245376038
 21
32.83107684907521
 31
0.0
  0
LINE
  5
CAC
330
1F
100
AcDbEntity
  8
2
  6
CONTINUOUS
370
25
 62
7
100
AcDbLine
 10
2.583369439657419
 20
31.43332611206852
 30
0.0
 11
3.875054159486123
 21
32.72501083189723
 31
0.0
  0
LINE
  5
CAD
330
1F
100
AcDbEntity
  8
2
  6
CONTINUOUS
370
25
 62
7
100
AcDbLine
 10
2.229816049064146
 20
31.50403679018718
 30
0.0
 11
3.344724073596214
 21
32.61894481471924
 31
0.0
  0
LINE
  5
CAE
330
1F
100
AcDbEntity
  8
2
  6
CONTINUOUS
370
25
 62
7
100
AcDbLine
 10
1.876262658470871
 20
31.57474746830583
 30
0.0
 11
2.814393987706302
 21
32.51287879754126
 31
0.0
  0
LINE
  5
CAF
330
1F
100
AcDbEntity
  8
2
  6
CONTINUOUS
370
25
 62
7
100
AcDbLine
 10
1.522709267877598
 20
31.64545814642448
 30
0.0
 11
2.284063901816393
 21
32.40681278036328
 31
0.0
  0
LINE
  5
CB0
330
1F
100
AcDbEntity
  8
2
  6
CONTINUOUS
370
25
 62
7
100
AcDbLine
 10
1.169155877284323
 20
31.71616882454314
 30
0.0
 11
1.753733815926481
 21
32.3007467631853
 31
0.0
  0
LINE
  5
CB1
330
1F
100
AcDbEntity
  8
2
  6
CONTINUOUS
370
25
 62
7
100
AcDbLine
 10
0.8156024866910477
 20
31.78687950266179
 30
0.0
 11
1.223403730036569
 21
32.19468074600731
 31
0.0
  0
LINE
  5
CB2
330
1F
100
AcDbEntity
  8
2
  6
CONTINUOUS
370
25
 62
7
100
AcDbLine
 10
0.4620490960977759
 20
31.85759018078045
 30
0.0
 11
0.6930736441466623
 21
32.08861472882933
 31
0.0
  0
LINE
  5
CB3
330
1F
100
AcDbEntity
  8
2
  6
CONTINUOUS
370
25
 62
7
100
AcDbLine
 10
0.1084957055045013
 20
31.9283008588991
 30
0.0
 11
0.1627435582567516
 21
31.98254871165135
 31
0.0
  0
LINE
  5
CB4
330
1F
100
AcDbEntity
  8
2
  6
CONTINUOUS
370
25
 62
7
100
AcDbLine
 10
0.2450576850887739
 20
31.99901153701776
 30
0.0
 11
0.3675865276331606
 21
31.87648269447337
 31
0.0
  0
LINE
  5
CB5
330
1F
100
AcDbEntity
  8
2
  6
CONTINUOUS
370
25
 62
7
100
AcDbLine
 10
0.5986110756820523
 20
32.06972221513642
 30
0.0
 11
0.8979166135230775
 21
31.77041667729539
 31
0.0
  0
LINE
  5
CB6
330
1F
100
AcDbEntity
  8
2
  6
CONTINUOUS
370
25
 62
7
100
AcDbLine
 10
0.9521644662753246
 20
32.14043289325507
 30
0.0
 11
1.428246699412985
 21
31.66435066011741
 31
0.0
  0
LINE
  5
CB7
330
1F
100
AcDbEntity
  8
2
  6
CONTINUOUS
370
25
 62
7
100
AcDbLine
 10
1.305717856868602
 20
32.21114357137373
 30
0.0
 11
1.958576785302901
 21
31.55828464293942
 31
0.0
  0
LINE
  5
CB8
330
1F
100
AcDbEntity
  8
2
  6
CONTINUOUS
370
25
 62
7
100
AcDbLine
 10
1.659271247461874
 20
32.28185424949238
 30
0.0
 11
2.488906871192808
 21
31.45221862576144
 31
0.0
  0
LINE
  5
CB9
330
1F
100
AcDbEntity
  8
2
  6
CONTINUOUS
370
25
 62
7
100
AcDbLine
 10
2.012824638055152
 20
32.35256492761103
 30
0.0
 11
3.019236957082722
 21
31.34615260858346
 31
0.0
  0
LINE
  5
CBA
330
1F
100
AcDbEntity
  8
2
  6
CONTINUOUS
370
25
 62
7
100
AcDbLine
 10
2.366378028648422
 20
32.42327560572969
 30
0.0
 11
3.549567042972628
 21
31.24008659140548
 31
0.0
  0
LINE
  5
CBB
330
1F
100
AcDbEntity
  8
2
  6
CONTINUOUS
370
25
 62
7
100
AcDbLine
 10
2.719931419241699
 20
32.49398628384834
 30
0.0
 11
4.079897128862541
 21
31.1340205742275
 31
0.0
  0
LINE
  5
CBC
330
1F
100
AcDbEntity
  8
2
  6
CONTINUOUS
370
25
 62
7
100
AcDbLine
 10
3.07348480983497
 20
32.56469696196699
 30
0.0
 11
4.610227214752445
 21
31.02795455704952
 31
0.0
  0
LINE
  5
CBD
330
1F
100
AcDbEntity
  8
2
  6
CONTINUOUS
370
25
 62
7
100
AcDbLine
 10
3.427038200428247
 20
32.63540764008565
 30
0.0
 11
5.0
 21
31.06244584051389
 31
0.0
  0
LINE
  5
CBE
330
1F
100
AcDbEntity
  8
2
  6
CONTINUOUS
370
25
 62
7
100
AcDbLine
 10
3.780591591021523
 20
32.7061183182043
 30
0.0
 11
5.0
 21
31.48670990922582
 31
0.0
  0
LINE
  5
CBF
330
1F
100
AcDbEntity
  8
2
  6
CONTINUOUS
370
25
 62
7
100
AcDbLine
 10
4.134144981614792
 20
32.77682899632296
 30
0.0
 11
5.0
 21
31.91097397793775
 31
0.0
  0
LINE
  5
CC0
330
1F
100
AcDbEntity
  8
2
  6
CONTINUOUS
370
25
 62
7
100
AcDbLine
 10
4.487698372208069
 20
32.84753967444161
 30
0.0
 11
5.0
 21
32.33523804664968
 31
0.0
  0
LINE
  5
CC1
330
1F
100
AcDbEntity
  8
2
  6
CONTINUOUS
370
25
 62
7
100
AcDbLine
 10
4.841251762801344
 20
32.91825035256027
 30
0.0
 11
5.0
 21
32.75950211536161
 31
0.0
  0
LINE
  5
CC2
330
1F
100
AcDbEntity
  8
2
  6
CONTINUOUS
370
25
 62
7
100
AcDbLine
 10
101.0
 20
31.95
 30
0.0
 11
96.0
 21
30.95
 31
0.0
  0
LINE
  5
CC3
330
1F
100
AcDbEntity
  8
2
  6
CONTINUOUS
370
25
 62
7
100
AcDbLine
 10
96.0
 20
30.95
 30
0.0
 11
96.0
 21
32.95
 31
0.0
  0
LINE
  5
CC4
330
1F
100
AcDbEntity
  8
2
  6
CONTINUOUS
370
25
 62
7
100
AcDbLine
 10
96.0
 20
32.95
 30
0.0
 11
101.0
 21
31.95
 31
0.0
  0
LINE
  5
CC5
330
1F
100
AcDbEntity
  8
2
  6
CONTINUOUS
370
25
 62
7
100
AcDbLine
 10
100.8477483886852
 20
31.91954967773704
 30
0.0
 11
100.8984989257902
 21
31.97030021484198
 31
0.0
  0
LINE
  5
CC6
330
1F
100
AcDbEntity
  8
2
  6
CONTINUOUS
370
25
 62
7
100
AcDbLine
 10
100.3174183027953
 20
31.81348366055906
 30
0.0
 11
100.5449455351969
 21
32.04101089296064
 31
0.0
  0
LINE
  5
CC7
330
1F
100
AcDbEntity
  8
2
  6
CONTINUOUS
370
25
 62
7
100
AcDbLine
 10
99.78708821690539
 20
31.70741764338108
 30
0.0
 11
100.1913921446036
 21
32.11172157107929
 31
0.0
  0
LINE
  5
CC8
330
1F
100
AcDbEntity
  8
2
  6
CONTINUOUS
370
25
 62
7
100
AcDbLine
 10
99.25675813101549
 20
31.6013516262031
 30
0.0
 11
99.83783875401033
 21
32.18243224919794
 31
0.0
  0
LINE
  5
CC9
330
1F
100
AcDbEntity
  8
2
  6
CONTINUOUS
370
25
 62
7
100
AcDbLine
 10
98.72642804512557
 20
31.4952856090251
 30
0.0
 11
99.48428536341706
 21
32.25314292731659
 31
0.0
  0
LINE
  5
CCA
330
1F
100
AcDbEntity
  8
2
  6
CONTINUOUS
370
25
 62
7
100
AcDbLine
 10
98.19609795923567
 20
31.38921959184712
 30
0.0
 11
99.1307319728238
 21
32.32385360543525
 31
0.0
  0
LINE
  5
CCB
330
1F
100
AcDbEntity
  8
2
  6
CONTINUOUS
370
25
 62
7
100
AcDbLine
 10
97.66576787334579
 20
31.28315357466916
 30
0.0
 11
98.77717858223053
 21
32.3945642835539
 31
0.0
  0
LINE
  5
CCC
330
1F
100
AcDbEntity
  8
2
  6
CONTINUOUS
370
25
 62
7
100
AcDbLine
 10
97.13543778745586
 20
31.17708755749116
 30
0.0
 11
98.42362519163724
 21
32.46527496167255
 31
0.0
  0
LINE
  5
CCD
330
1F
100
AcDbEntity
  8
2
  6
CONTINUOUS
370
25
 62
7
100
AcDbLine
 10
96.60510770156596
 20
31.07102154031318
 30
0.0
 11
98.07007180104398
 21
32.53598563979122
 31
0.0
  0
LINE
  5
CCE
330
1F
100
AcDbEntity
  8
2
  6
CONTINUOUS
370
25
 62
7
100
AcDbLine
 10
96.07477761567606
 20
30.9649555231352
 30
0.0
 11
97.71651841045072
 21
32.60669631790988
 31
0.0
  0
LINE
  5
CCF
330
1F
100
AcDbEntity
  8
2
  6
CONTINUOUS
370
25
 62
7
100
AcDbLine
 10
96.0
 20
31.31444197617108
 30
0.0
 11
97.36296501985743
 21
32.67740699602852
 31
0.0
  0
LINE
  5
CD0
330
1F
100
AcDbEntity
  8
2
  6
CONTINUOUS
370
25
 62
7
100
AcDbLine
 10
96.0
 20
31.73870604488302
 30
0.0
 11
97.00941162926416
 21
32.74811767414718
 31
0.0
  0
LINE
  5
CD1
330
1F
100
AcDbEntity
  8
2
  6
CONTINUOUS
370
25
 62
7
100
AcDbLine
 10
96.0
 20
32.16297011359492
 30
0.0
 11
96.6558582386709
 21
32.81882835226584
 31
0.0
  0
LINE
  5
CD2
330
1F
100
AcDbEntity
  8
2
  6
CONTINUOUS
370
25
 62
7
100
AcDbLine
 10
96.0
 20
32.58723418230686
 30
0.0
 11
96.30230484807763
 21
32.88953903038448
 31
0.0
  0
LINE
  5
CD3
330
1F
100
AcDbEntity
  8
2
  6
CONTINUOUS
370
25
 62
7
100
AcDbLine
 10
96.0
 20
31.27922061357887
 30
0.0
 11
96.27435051131573
 21
31.00487010226314
 31
0.0
  0
LINE
  5
CD4
330
1F
100
AcDbEntity
  8
2
  6
CONTINUOUS
370
25
 62
7
100
AcDbLine
 10
96.0
 20
31.70348468229079
 30
0.0
 11
96.627903901909
 21
31.07558078038178
 31
0.0
  0
LINE
  5
CD5
330
1F
100
AcDbEntity
  8
2
  6
CONTINUOUS
370
25
 62
7
100
AcDbLine
 10
96.0
 20
32.12774875100271
 30
0.0
 11
96.98145729250227
 21
31.14629145850044
 31
0.0
  0
LINE
  5
CD6
330
1F
100
AcDbEntity
  8
2
  6
CONTINUOUS
370
25
 62
7
100
AcDbLine
 10
96.0
 20
32.55201281971466
 30
0.0
 11
97.33501068309555
 21
31.2170021366191
 31
0.0
  0
LINE
  5
CD7
330
1F
100
AcDbEntity
  8
2
  6
CONTINUOUS
370
25
 62
7
100
AcDbLine
 10
96.03284611053319
 20
32.94343077789337
 30
0.0
 11
97.6885640736888
 21
31.28771281473776
 31
0.0
  0
LINE
  5
CD8
330
1F
100
AcDbEntity
  8
2
  6
CONTINUOUS
370
25
 62
7
100
AcDbLine
 10
96.56317619642313
 20
32.83736476071539
 30
0.0
 11
98.0421174642821
 21
31.35842349285642
 31
0.0
  0
LINE
  5
CD9
330
1F
100
AcDbEntity
  8
2
  6
CONTINUOUS
370
25
 62
7
100
AcDbLine
 10
97.09350628231304
 20
32.73129874353741
 30
0.0
 11
98.39567085487538
 21
31.42913417097508
 31
0.0
  0
LINE
  5
CDA
330
1F
100
AcDbEntity
  8
2
  6
CONTINUOUS
370
25
 62
7
100
AcDbLine
 10
97.62383636820293
 20
32.62523272635943
 30
0.0
 11
98.74922424546862
 21
31.49984484909372
 31
0.0
  0
LINE
  5
CDB
330
1F
100
AcDbEntity
  8
2
  6
CONTINUOUS
370
25
 62
7
100
AcDbLine
 10
98.1541664540928
 20
32.51916670918145
 30
0.0
 11
99.10277763606189
 21
31.57055552721236
 31
0.0
  0
LINE
  5
CDC
330
1F
100
AcDbEntity
  8
2
  6
CONTINUOUS
370
25
 62
7
100
AcDbLine
 10
98.68449653998275
 20
32.41310069200347
 30
0.0
 11
99.45633102665518
 21
31.64126620533104
 31
0.0
  0
LINE
  5
CDD
330
1F
100
AcDbEntity
  8
2
  6
CONTINUOUS
370
25
 62
7
100
AcDbLine
 10
99.21482662587266
 20
32.30703467482549
 30
0.0
 11
99.80988441724845
 21
31.71197688344968
 31
0.0
  0
LINE
  5
CDE
330
1F
100
AcDbEntity
  8
2
  6
CONTINUOUS
370
25
 62
7
100
AcDbLine
 10
99.74515671176255
 20
32.20096865764749
 30
0.0
 11
100.1634378078417
 21
31.78268756156834
 31
0.0
  0
LINE
  5
CDF
330
1F
100
AcDbEntity
  8
2
  6
CONTINUOUS
370
25
 62
7
100
AcDbLine
 10
100.2754867976525
 20
32.09490264046951
 30
0.0
 11
100.516991198435
 21
31.853398239687
 31
0.0
  0
LINE
  5
CE0
330
1F
100
AcDbEntity
  8
2
  6
CONTINUOUS
370
25
 62
7
100
AcDbLine
 10
100.8058168835424
 20
31.98883662329153
 30
0.0
 11
100.8705445890283
 21
31.92410891780564
 31
0.0
  0
TEXT
  5
CE1
330
1F
100
AcDbEntity
  8
2
  6
CONTINUOUS
370
25
 62
7
100
AcDbText
 10
47.29166666666666
 20
33.45
 30
0.0
 40
3.5
  1
101
 72
     1
 11
50.5
 21
33.45
 31
0.0
100
AcDbText
  0
LINE
  5
CE2
330
1F
100
AcDbEntity
  8
SK2
  6
CONTINUOUS
370
25
 62
7
100
AcDbLine
 10
-56.0
 20
10.5
 30
0.0
 11
-56.0
 21
42.95
 31
0.0
  0
LINE
  5
CE3
330
1F
100
AcDbEntity
  8
SK2
  6
CONTINUOUS
370
25
 62
7
100
AcDbLine
 10
101.0
 20
42.95
 30
0.0
 11
101.0
 21
8.5
 31
0.0
  0
LINE
  5
CE4
330
1F
100
AcDbEntity
  8
SK2
  6
CONTINUOUS
370
25
 62
7
100
AcDbLine
 10
-56.0
 20
41.95
 30
0.0
 11
101.0
 21
41.95
 31
0.0
  0
LINE
  5
CE5
330
1F
100
AcDbEntity
  8
SK2
  6
CONTINUOUS
370
25
 62
7
100
AcDbLine
 10
-56.0
 20
41.95
 30
0.0
 11
-51.0
 21
42.95
 31
0.0
  0
LINE
  5
CE6
330
1F
100
AcDbEntity
  8
SK2
  6
CONTINUOUS
370
25
 62
7
100
AcDbLine
 10
-51.0
 20
42.95
 30
0.0
 11
-51.0
 21
40.95
 31
0.0
  0
LINE
  5
CE7
330
1F
100
AcDbEntity
  8
SK2
  6
CONTINUOUS
370
25
 62
7
100
AcDbLine
 10
-51.0
 20
40.95
 30
0.0
 11
-56.0
 21
41.95
 31
0.0
  0
LINE
  5
CE8
330
1F
100
AcDbEntity
  8
SK2
  6
CONTINUOUS
370
25
 62
7
100
AcDbLine
 10
-51.09608575874042
 20
40.96921715174809
 30
0.0
 11
-51.0
 21
41.06530291048851
 31
0.0
  0
LINE
  5
CE9
330
1F
100
AcDbEntity
  8
SK2
  6
CONTINUOUS
370
25
 62
7
100
AcDbLine
 10
-51.44963914933371
 20
41.03992782986675
 30
0.0
 11
-51.0
 21
41.48956697920046
 31
0.0
  0
LINE
  5
CEA
330
1F
100
AcDbEntity
  8
SK2
  6
CONTINUOUS
370
25
 62
7
100
AcDbLine
 10
-51.80319253992698
 20
41.1106385079854
 30
0.0
 11
-51.0
 21
41.91383104791238
 31
0.0
  0
LINE
  5
CEB
330
1F
100
AcDbEntity
  8
SK2
  6
CONTINUOUS
370
25
 62
7
100
AcDbLine
 10
-52.15674593052027
 20
41.18134918610406
 30
0.0
 11
-51.0
 21
42.33809511662433
 31
0.0
  0
LINE
  5
CEC
330
1F
100
AcDbEntity
  8
SK2
  6
CONTINUOUS
370
25
 62
7
100
AcDbLine
 10
-52.51029932111354
 20
41.25205986422272
 30
0.0
 11
-51.0
 21
42.76235918533625
 31
0.0
  0
LINE
  5
CED
330
1F
100
AcDbEntity
  8
SK2
  6
CONTINUOUS
370
25
 62
7
100
AcDbLine
 10
-52.86385271170683
 20
41.32277054234137
 30
0.0
 11
-51.29577906756025
 21
42.89084418648795
 31
0.0
  0
LINE
  5
CEE
330
1F
100
AcDbEntity
  8
SK2
  6
CONTINUOUS
370
25
 62
7
100
AcDbLine
 10
-53.2174061023001
 20
41.39348122046002
 30
0.0
 11
-51.82610915345015
 21
42.78477816930997
 31
0.0
  0
LINE
  5
CEF
330
1F
100
AcDbEntity
  8
SK2
  6
CONTINUOUS
370
25
 62
7
100
AcDbLine
 10
-53.57095949289339
 20
41.46419189857868
 30
0.0
 11
-52.35643923934008
 21
42.67871215213199
 31
0.0
  0
LINE
  5
CF0
330
1F
100
AcDbEntity
  8
SK2
  6
CONTINUOUS
370
25
 62
7
100
AcDbLine
 10
-53.92451288348666
 20
41.53490257669733
 30
0.0
 11
-52.88676932522998
 21
42.57264613495401
 31
0.0
  0
LINE
  5
CF1
330
1F
100
AcDbEntity
  8
SK2
  6
CONTINUOUS
370
25
 62
7
100
AcDbLine
 10
-54.27806627407995
 20
41.60561325481599
 30
0.0
 11
-53.41709941111992
 21
42.46658011777602
 31
0.0
  0
LINE
  5
CF2
330
1F
100
AcDbEntity
  8
SK2
  6
CONTINUOUS
370
25
 62
7
100
AcDbLine
 10
-54.63161966467322
 20
41.67632393293464
 30
0.0
 11
-53.94742949700982
 21
42.36051410059804
 31
0.0
  0
LINE
  5
CF3
330
1F
100
AcDbEntity
  8
SK2
  6
CONTINUOUS
370
25
 62
7
100
AcDbLine
 10
-54.98517305526651
 20
41.7470346110533
 30
0.0
 11
-54.47775958289976
 21
42.25444808342005
 31
0.0
  0
LINE
  5
CF4
330
1F
100
AcDbEntity
  8
SK2
  6
CONTINUOUS
370
25
 62
7
100
AcDbLine
 10
-55.33872644585977
 20
41.81774528917196
 30
0.0
 11
-55.00808966878966
 21
42.14838206624207
 31
0.0
  0
LINE
  5
CF5
330
1F
100
AcDbEntity
  8
SK2
  6
CONTINUOUS
370
25
 62
7
100
AcDbLine
 10
-55.69227983645306
 20
41.88845596729062
 30
0.0
 11
-55.53841975467959
 21
42.04231604906408
 31
0.0
  0
LINE
  5
CF6
330
1F
100
AcDbEntity
  8
SK2
  6
CONTINUOUS
370
25
 62
7
100
AcDbLine
 10
-55.67355297898965
 20
42.01528940420208
 30
0.0
 11
-55.51032946848446
 21
41.85206589369689
 31
0.0
  0
LINE
  5
CF7
330
1F
100
AcDbEntity
  8
SK2
  6
CONTINUOUS
370
25
 62
7
100
AcDbLine
 10
-55.31999958839637
 20
42.08600008232074
 30
0.0
 11
-54.97999938259454
 21
41.74599987651891
 31
0.0
  0
LINE
  5
CF8
330
1F
100
AcDbEntity
  8
SK2
  6
CONTINUOUS
370
25
 62
7
100
AcDbLine
 10
-54.96644619780309
 20
42.15671076043939
 30
0.0
 11
-54.44966929670462
 21
41.63993385934092
 31
0.0
  0
LINE
  5
CF9
330
1F
100
AcDbEntity
  8
SK2
  6
CONTINUOUS
370
25
 62
7
100
AcDbLine
 10
-54.61289280720981
 20
42.22742143855805
 30
0.0
 11
-53.9193392108147
 21
41.53386784216293
 31
0.0
  0
LINE
  5
CFA
330
1F
100
AcDbEntity
  8
SK2
  6
CONTINUOUS
370
25
 62
7
100
AcDbLine
 10
-54.25933941661653
 20
42.2981321166767
 30
0.0
 11
-53.38900912492478
 21
41.42780182498495
 31
0.0
  0
LINE
  5
CFB
330
1F
100
AcDbEntity
  8
SK2
  6
CONTINUOUS
370
25
 62
7
100
AcDbLine
 10
-53.90578602602325
 20
42.36884279479536
 30
0.0
 11
-52.85867903903486
 21
41.32173580780697
 31
0.0
  0
LINE
  5
CFC
330
1F
100
AcDbEntity
  8
SK2
  6
CONTINUOUS
370
25
 62
7
100
AcDbLine
 10
-53.55223263542997
 20
42.43955347291401
 30
0.0
 11
-52.32834895314494
 21
41.21566979062899
 31
0.0
  0
LINE
  5
CFD
330
1F
100
AcDbEntity
  8
SK2
  6
CONTINUOUS
370
25
 62
7
100
AcDbLine
 10
-53.19867924483669
 20
42.51026415103266
 30
0.0
 11
-51.79801886725502
 21
41.10960377345101
 31
0.0
  0
LINE
  5
CFE
330
1F
100
AcDbEntity
  8
SK2
  6
CONTINUOUS
370
25
 62
7
100
AcDbLine
 10
-52.84512585424341
 20
42.58097482915132
 30
0.0
 11
-51.2676887813651
 21
41.00353775627302
 31
0.0
  0
LINE
  5
CFF
330
1F
100
AcDbEntity
  8
SK2
  6
CONTINUOUS
370
25
 62
7
100
AcDbLine
 10
-52.49157246365014
 20
42.65168550726999
 30
0.0
 11
-51.0
 21
41.16011304361985
 31
0.0
  0
LINE
  5
D00
330
1F
100
AcDbEntity
  8
SK2
  6
CONTINUOUS
370
25
 62
7
100
AcDbLine
 10
-52.13801907305686
 20
42.72239618538864
 30
0.0
 11
-51.0
 21
41.58437711233178
 31
0.0
  0
LINE
  5
D01
330
1F
100
AcDbEntity
  8
SK2
  6
CONTINUOUS
370
25
 62
7
100
AcDbLine
 10
-51.78446568246358
 20
42.7931068635073
 30
0.0
 11
-51.0
 21
42.00864118104371
 31
0.0
  0
LINE
  5
D02
330
1F
100
AcDbEntity
  8
SK2
  6
CONTINUOUS
370
25
 62
7
100
AcDbLine
 10
-51.4309122918703
 20
42.86381754162595
 30
0.0
 11
-51.0
 21
42.43290524975565
 31
0.0
  0
LINE
  5
D03
330
1F
100
AcDbEntity
  8
SK2
  6
CONTINUOUS
370
25
 62
7
100
AcDbLine
 10
-51.07735890127702
 20
42.93452821974461
 30
0.0
 11
-51.0
 21
42.85716931846758
 31
0.0
  0
LINE
  5
D04
330
1F
100
AcDbEntity
  8
SK2
  6
CONTINUOUS
370
25
 62
7
100
AcDbLine
 10
101.0
 20
41.95
 30
0.0
 11
96.0
 21
40.95
 31
0.0
  0
LINE
  5
D05
330
1F
100
AcDbEntity
  8
SK2
  6
CONTINUOUS
370
25
 62
7
100
AcDbLine
 10
96.0
 20
40.95
 30
0.0
 11
96.0
 21
42.95
 31
0.0
  0
LINE
  5
D06
330
1F
100
AcDbEntity
  8
SK2
  6
CONTINUOUS
370
25
 62
7
100
AcDbLine
 10
96.0
 20
42.95
 30
0.0
 11
101.0
 21
41.95
 31
0.0
  0
LINE
  5
D07
330
1F
100
AcDbEntity
  8
SK2
  6
CONTINUOUS
370
25
 62
7
100
AcDbLine
 10
100.5453403641531
 20
41.85906807283061
 30
0.0
 11
100.6968935761021
 21
42.0106212847796
 31
0.0
  0
LINE
  5
D08
330
1F
100
AcDbEntity
  8
SK2
  6
CONTINUOUS
370
25
 62
7
100
AcDbLine
 10
100.0150102782632
 20
41.75300205565264
 30
0.0
 11
100.3433401855088
 21
42.08133196289825
 31
0.0
  0
LINE
  5
D09
330
1F
100
AcDbEntity
  8
SK2
  6
CONTINUOUS
370
25
 62
7
100
AcDbLine
 10
99.48468019237326
 20
41.64693603847465
 30
0.0
 11
99.98978679491552
 21
42.15204264101691
 31
0.0
  0
LINE
  5
D0A
330
1F
100
AcDbEntity
  8
SK2
  6
CONTINUOUS
370
25
 62
7
100
AcDbLine
 10
98.95435010648335
 20
41.54087002129666
 30
0.0
 11
99.63623340432224
 21
42.22275331913556
 31
0.0
  0
LINE
  5
D0B
330
1F
100
AcDbEntity
  8
SK2
  6
CONTINUOUS
370
25
 62
7
100
AcDbLine
 10
98.42402002059345
 20
41.43480400411869
 30
0.0
 11
99.28268001372898
 21
42.29346399725422
 31
0.0
  0
LINE
  5
D0C
330
1F
100
AcDbEntity
  8
SK2
  6
CONTINUOUS
370
25
 62
7
100
AcDbLine
 10
97.89368993470354
 20
41.32873798694072
 30
0.0
 11
98.9291266231357
 21
42.36417467537287
 31
0.0
  0
LINE
  5
D0D
330
1F
100
AcDbEntity
  8
SK2
  6
CONTINUOUS
370
25
 62
7
100
AcDbLine
 10
97.36335984881362
 20
41.22267196976271
 30
0.0
 11
98.57557323254242
 21
42.43488535349152
 31
0.0
  0
LINE
  5
D0E
330
1F
100
AcDbEntity
  8
SK2
  6
CONTINUOUS
370
25
 62
7
100
AcDbLine
 10
96.8330297629237
 20
41.11660595258473
 30
0.0
 11
98.22201984194915
 21
42.50559603161017
 31
0.0
  0
LINE
  5
D0F
330
1F
100
AcDbEntity
  8
SK2
  6
CONTINUOUS
370
25
 62
7
100
AcDbLine
 10
96.3026996770338
 20
41.01053993540675
 30
0.0
 11
97.86846645135589
 21
42.57630670972884
 31
0.0
  0
LINE
  5
D10
330
1F
100
AcDbEntity
  8
SK2
  6
CONTINUOUS
370
25
 62
7
100
AcDbLine
 10
96.0
 20
41.13210432708488
 30
0.0
 11
97.51491306076261
 21
42.64701738784749
 31
0.0
  0
LINE
  5
D11
330
1F
100
AcDbEntity
  8
SK2
  6
CONTINUOUS
370
25
 62
7
100
AcDbLine
 10
96.0
 20
41.55636839579681
 30
0.0
 11
97.16135967016933
 21
42.71772806596614
 31
0.0
  0
LINE
  5
D12
330
1F
100
AcDbEntity
  8
SK2
  6
CONTINUOUS
370
25
 62
7
100
AcDbLine
 10
96.0
 20
41.98063246450874
 30
0.0
 11
96.80780627957606
 21
42.78843874408479
 31
0.0
  0
LINE
  5
D13
330
1F
100
AcDbEntity
  8
SK2
  6
CONTINUOUS
370
25
 62
7
100
AcDbLine
 10
96.0
 20
42.40489653322066
 30
0.0
 11
96.4542528889828
 21
42.85914942220346
 31
0.0
  0
LINE
  5
D14
330
1F
100
AcDbEntity
  8
SK2
  6
CONTINUOUS
370
25
 62
7
100
AcDbLine
 10
96.0
 20
42.82916060193259
 30
0.0
 11
96.10069949838952
 21
42.92986010032211
 31
0.0
  0
LINE
  5
D15
330
1F
100
AcDbEntity
  8
SK2
  6
CONTINUOUS
370
25
 62
7
100
AcDbLine
 10
96.0
 20
41.03729419395319
 30
0.0
 11
96.07274516162767
 21
40.96454903232554
 31
0.0
  0
LINE
  5
D16
330
1F
100
AcDbEntity
  8
SK2
  6
CONTINUOUS
370
25
 62
7
100
AcDbLine
 10
96.0
 20
41.46155826266511
 30
0.0
 11
96.42629855222093
 21
41.03525971044419
 31
0.0
  0
LINE
  5
D17
330
1F
100
AcDbEntity
  8
SK2
  6
CONTINUOUS
370
25
 62
7
100
AcDbLine
 10
96.0
 20
41.88582233137703
 30
0.0
 11
96.7798519428142
 21
41.10597038856284
 31
0.0
  0
LINE
  5
D18
330
1F
100
AcDbEntity
  8
SK2
  6
CONTINUOUS
370
25
 62
7
100
AcDbLine
 10
96.0
 20
42.31008640008898
 30
0.0
 11
97.1334053334075
 21
41.1766810666815
 31
0.0
  0
LINE
  5
D19
330
1F
100
AcDbEntity
  8
SK2
  6
CONTINUOUS
370
25
 62
7
100
AcDbLine
 10
96.0
 20
42.7343504688009
 30
0.0
 11
97.48695872400076
 21
41.24739174480015
 31
0.0
  0
LINE
  5
D1A
330
1F
100
AcDbEntity
  8
SK2
  6
CONTINUOUS
370
25
 62
7
100
AcDbLine
 10
96.26076817189102
 20
42.89784636562182
 30
0.0
 11
97.84051211459403
 21
41.3181024229188
 31
0.0
  0
LINE
  5
D1B
330
1F
100
AcDbEntity
  8
SK2
  6
CONTINUOUS
370
25
 62
7
100
AcDbLine
 10
96.79109825778092
 20
42.79178034844384
 30
0.0
 11
98.1940655051873
 21
41.38881310103746
 31
0.0
  0
LINE
  5
D1C
330
1F
100
AcDbEntity
  8
SK2
  6
CONTINUOUS
370
25
 62
7
100
AcDbLine
 10
97.32142834367082
 20
42.68571433126586
 30
0.0
 11
98.54761889578056
 21
41.45952377915611
 31
0.0
  0
LINE
  5
D1D
330
1F
100
AcDbEntity
  8
SK2
  6
CONTINUOUS
370
25
 62
7
100
AcDbLine
 10
97.85175842956076
 20
42.57964831408786
 30
0.0
 11
98.90117228637385
 21
41.53023445727477
 31
0.0
  0
LINE
  5
D1E
330
1F
100
AcDbEntity
  8
SK2
  6
CONTINUOUS
370
25
 62
7
100
AcDbLine
 10
98.38208851545066
 20
42.47358229690988
 30
0.0
 11
99.25472567696713
 21
41.60094513539342
 31
0.0
  0
LINE
  5
D1F
330
1F
100
AcDbEntity
  8
SK2
  6
CONTINUOUS
370
25
 62
7
100
AcDbLine
 10
98.91241860134056
 20
42.3675162797319
 30
0.0
 11
99.60827906756039
 21
41.67165581351207
 31
0.0
  0
LINE
  5
D20
330
1F
100
AcDbEntity
  8
SK2
  6
CONTINUOUS
370
25
 62
7
100
AcDbLine
 10
99.4427486872305
 20
42.26145026255391
 30
0.0
 11
99.96183245815368
 21
41.74236649163073
 31
0.0
  0
LINE
  5
D21
330
1F
100
AcDbEntity
  8
SK2
  6
CONTINUOUS
370
25
 62
7
100
AcDbLine
 10
99.9730787731204
 20
42.15538424537593
 30
0.0
 11
100.3153858487469
 21
41.81307716974939
 31
0.0
  0
LINE
  5
D22
330
1F
100
AcDbEntity
  8
SK2
  6
CONTINUOUS
370
25
 62
7
100
AcDbLine
 10
100.5034088590103
 20
42.04931822819795
 30
0.0
 11
100.6689392393402
 21
41.88378784786804
 31
0.0
  0
TEXT
  5
D23
330
1F
100
AcDbEntity
  8
SK2
  6
CONTINUOUS
370
25
 62
7
100
AcDbText
 10
18.41666666666666
 20
43.45
 30
0.0
 40
3.5
  1
157
 72
     1
 11
22.5
 21
43.45
 31
0.0
100
AcDbText
  0
LINE
  5
D24
330
1F
100
AcDbEntity
  8
2
  6
CONTINUOUS
370
25
 62
7
100
AcDbLine
 10
6.32
 20
-11.99995
 30
0.0
 11
6.319999999999999
 21
-45.5
 31
0.0
  0
LINE
  5
D25
330
1F
100
AcDbEntity
  8
2
  6
CONTINUOUS
370
25
 62
7
100
AcDbLine
 10
101.0
 20
-45.5
 30
0.0
 11
101.0
 21
-8.5
 31
0.0
  0
LINE
  5
D26
330
1F
100
AcDbEntity
  8
2
  6
CONTINUOUS
370
25
 62
7
100
AcDbLine
 10
6.319999999999999
 20
-44.5
 30
0.0
 11
101.0
 21
-44.5
 31
0.0
  0
LINE
  5
D27
330
1F
100
AcDbEntity
  8
2
  6
CONTINUOUS
370
25
 62
7
100
AcDbLine
 10
6.319999999999999
 20
-44.5
 30
0.0
 11
11.32
 21
-43.5
 31
0.0
  0
LINE
  5
D28
330
1F
100
AcDbEntity
  8
2
  6
CONTINUOUS
370
25
 62
7
100
AcDbLine
 10
11.32
 20
-43.5
 30
0.0
 11
11.32
 21
-45.5
 31
0.0
  0
LINE
  5
D29
330
1F
100
AcDbEntity
  8
2
  6
CONTINUOUS
370
25
 62
7
100
AcDbLine
 10
11.32
 20
-45.5
 30
0.0
 11
6.319999999999999
 21
-44.5
 31
0.0
  0
LINE
  5
D2A
330
1F
100
AcDbEntity
  8
2
  6
CONTINUOUS
370
25
 62
7
100
AcDbLine
 10
11.02742748203542
 20
-45.44148549640708
 30
0.0
 11
11.32
 21
-45.1489129784425
 31
0.0
  0
LINE
  5
D2B
330
1F
100
AcDbEntity
  8
2
  6
CONTINUOUS
370
25
 62
7
100
AcDbLine
 10
10.67387409144215
 20
-45.37077481828842
 30
0.0
 11
11.32
 21
-44.72464890973058
 31
0.0
  0
LINE
  5
D2C
330
1F
100
AcDbEntity
  8
2
  6
CONTINUOUS
370
25
 62
7
100
AcDbLine
 10
10.32032070084887
 20
-45.30006414016977
 30
0.0
 11
11.32
 21
-44.30038484101864
 31
0.0
  0
LINE
  5
D2D
330
1F
100
AcDbEntity
  8
2
  6
CONTINUOUS
370
25
 62
7
100
AcDbLine
 10
9.966767310255598
 20
-45.22935346205112
 30
0.0
 11
11.32
 21
-43.87612077230671
 31
0.0
  0
LINE
  5
D2E
330
1F
100
AcDbEntity
  8
2
  6
CONTINUOUS
370
25
 62
7
100
AcDbLine
 10
9.613213919662318
 20
-45.15864278393246
 30
0.0
 11
11.25982087949347
 21
-43.51203582410131
 31
0.0
  0
LINE
  5
D2F
330
1F
100
AcDbEntity
  8
2
  6
CONTINUOUS
370
25
 62
7
100
AcDbLine
 10
9.259660529069045
 20
-45.08793210581381
 30
0.0
 11
10.72949079360356
 21
-43.61810184127929
 31
0.0
  0
LINE
  5
D30
330
1F
100
AcDbEntity
  8
2
  6
CONTINUOUS
370
25
 62
7
100
AcDbLine
 10
8.906107138475766
 20
-45.01722142769515
 30
0.0
 11
10.19916070771364
 21
-43.72416785845728
 31
0.0
  0
LINE
  5
D31
330
1F
100
AcDbEntity
  8
2
  6
CONTINUOUS
370
25
 62
7
100
AcDbLine
 10
8.552553747882493
 20
-44.9465107495765
 30
0.0
 11
9.668830621823732
 21
-43.83023387563526
 31
0.0
  0
LINE
  5
D32
330
1F
100
AcDbEntity
  8
2
  6
CONTINUOUS
370
25
 62
7
100
AcDbLine
 10
8.199000357289215
 20
-44.87580007145784
 30
0.0
 11
9.138500535933813
 21
-43.93629989281324
 31
0.0
  0
LINE
  5
D33
330
1F
100
AcDbEntity
  8
2
  6
CONTINUOUS
370
25
 62
7
100
AcDbLine
 10
7.845446966695943
 20
-44.80508939333919
 30
0.0
 11
8.608170450043906
 21
-44.04236590999122
 31
0.0
  0
LINE
  5
D34
330
1F
100
AcDbEntity
  8
2
  6
CONTINUOUS
370
25
 62
7
100
AcDbLine
 10
7.491893576102663
 20
-44.73437871522053
 30
0.0
 11
8.077840364153987
 21
-44.14843192716921
 31
0.0
  0
LINE
  5
D35
330
1F
100
AcDbEntity
  8
2
  6
CONTINUOUS
370
25
 62
7
100
AcDbLine
 10
7.13834018550939
 20
-44.66366803710187
 30
0.0
 11
7.547510278264077
 21
-44.25449794434719
 31
0.0
  0
LINE
  5
D36
330
1F
100
AcDbEntity
  8
2
  6
CONTINUOUS
370
25
 62
7
100
AcDbLine
 10
6.784786794916111
 20
-44.59295735898322
 30
0.0
 11
7.017180192374161
 21
-44.36056396152517
 31
0.0
  0
LINE
  5
D37
330
1F
100
AcDbEntity
  8
2
  6
CONTINUOUS
370
25
 62
7
100
AcDbLine
 10
6.431233404322832
 20
-44.52224668086456
 30
0.0
 11
6.486850106484242
 21
-44.46662997870315
 31
0.0
  0
LINE
  5
D38
330
1F
100
AcDbEntity
  8
2
  6
CONTINUOUS
370
25
 62
7
100
AcDbLine
 10
6.337103560900283
 20
-44.49657928781995
 30
0.0
 11
6.345655341350419
 21
-44.50513106827008
 31
0.0
  0
LINE
  5
D39
330
1F
100
AcDbEntity
  8
2
  6
CONTINUOUS
370
25
 62
7
100
AcDbLine
 10
6.690656951493555
 20
-44.42586860970129
 30
0.0
 11
6.875985427240327
 21
-44.61119708544806
 31
0.0
  0
LINE
  5
D3A
330
1F
100
AcDbEntity
  8
2
  6
CONTINUOUS
370
25
 62
7
100
AcDbLine
 10
7.044210342086834
 20
-44.35515793158264
 30
0.0
 11
7.406315513130245
 21
-44.71726310262605
 31
0.0
  0
LINE
  5
D3B
330
1F
100
AcDbEntity
  8
2
  6
CONTINUOUS
370
25
 62
7
100
AcDbLine
 10
7.397763732680107
 20
-44.28444725346398
 30
0.0
 11
7.936645599020155
 21
-44.82332911980403
 31
0.0
  0
LINE
  5
D3C
330
1F
100
AcDbEntity
  8
2
  6
CONTINUOUS
370
25
 62
7
100
AcDbLine
 10
7.751317123273386
 20
-44.21373657534532
 30
0.0
 11
8.466975684910073
 21
-44.92939513698201
 31
0.0
  0
LINE
  5
D3D
330
1F
100
AcDbEntity
  8
2
  6
CONTINUOUS
370
25
 62
7
100
AcDbLine
 10
8.10487051386666
 20
-44.14302589722667
 30
0.0
 11
8.997305770799985
 21
-45.03546115416
 31
0.0
  0
LINE
  5
D3E
330
1F
100
AcDbEntity
  8
2
  6
CONTINUOUS
370
25
 62
7
100
AcDbLine
 10
8.458423904459938
 20
-44.07231521910801
 30
0.0
 11
9.527635856689903
 21
-45.14152717133798
 31
0.0
  0
LINE
  5
D3F
330
1F
100
AcDbEntity
  8
2
  6
CONTINUOUS
370
25
 62
7
100
AcDbLine
 10
8.811977295053211
 20
-44.00160454098936
 30
0.0
 11
10.05796594257981
 21
-45.24759318851596
 31
0.0
  0
LINE
  5
D40
330
1F
100
AcDbEntity
  8
2
  6
CONTINUOUS
370
25
 62
7
100
AcDbLine
 10
9.165530685646491
 20
-43.9308938628707
 30
0.0
 11
10.58829602846973
 21
-45.35365920569394
 31
0.0
  0
LINE
  5
D41
330
1F
100
AcDbEntity
  8
2
  6
CONTINUOUS
370
25
 62
7
100
AcDbLine
 10
9.519084076239764
 20
-43.86018318475205
 30
0.0
 11
11.11862611435964
 21
-45.45972522287192
 31
0.0
  0
LINE
  5
D42
330
1F
100
AcDbEntity
  8
2
  6
CONTINUOUS
370
25
 62
7
100
AcDbLine
 10
9.872637466833043
 20
-43.78947250663339
 30
0.0
 11
11.32
 21
-45.23683503980035
 31
0.0
  0
LINE
  5
D43
330
1F
100
AcDbEntity
  8
2
  6
CONTINUOUS
370
25
 62
7
100
AcDbLine
 10
10.22619085742632
 20
-43.71876182851474
 30
0.0
 11
11.32
 21
-44.81257097108842
 31
0.0
  0
LINE
  5
D44
330
1F
100
AcDbEntity
  8
2
  6
CONTINUOUS
370
25
 62
7
100
AcDbLine
 10
10.5797442480196
 20
-43.64805115039609
 30
0.0
 11
11.32
 21
-44.38830690237648
 31
0.0
  0
LINE
  5
D45
330
1F
100
AcDbEntity
  8
2
  6
CONTINUOUS
370
25
 62
7
100
AcDbLine
 10
10.93329763861287
 20
-43.57734047227743
 30
0.0
 11
11.32
 21
-43.96404283366456
 31
0.0
  0
LINE
  5
D46
330
1F
100
AcDbEntity
  8
2
  6
CONTINUOUS
370
25
 62
7
100
AcDbLine
 10
11.28685102920615
 20
-43.50662979415877
 30
0.0
 11
11.32
 21
-43.53977876495262
 31
0.0
  0
LINE
  5
D47
330
1F
100
AcDbEntity
  8
2
  6
CONTINUOUS
370
25
 62
7
100
AcDbLine
 10
101.0
 20
-44.5
 30
0.0
 11
96.0
 21
-45.5
 31
0.0
  0
LINE
  5
D48
330
1F
100
AcDbEntity
  8
2
  6
CONTINUOUS
370
25
 62
7
100
AcDbLine
 10
96.0
 20
-45.5
 30
0.0
 11
96.0
 21
-43.5
 31
0.0
  0
LINE
  5
D49
330
1F
100
AcDbEntity
  8
2
  6
CONTINUOUS
370
25
 62
7
100
AcDbLine
 10
96.0
 20
-43.5
 30
0.0
 11
101.0
 21
-44.5
 31
0.0
  0
LINE
  5
D4A
330
1F
100
AcDbEntity
  8
2
  6
CONTINUOUS
370
25
 62
7
100
AcDbLine
 10
100.9508329285017
 20
-44.50983341429966
 30
0.0
 11
100.9672219523345
 21
-44.49344439046689
 31
0.0
  0
LINE
  5
D4B
330
1F
100
AcDbEntity
  8
2
  6
CONTINUOUS
370
25
 62
7
100
AcDbLine
 10
100.4205028426118
 20
-44.61589943147764
 30
0.0
 11
100.6136685617412
 21
-44.42273371234825
 31
0.0
  0
LINE
  5
D4C
330
1F
100
AcDbEntity
  8
2
  6
CONTINUOUS
370
25
 62
7
100
AcDbLine
 10
99.89017275672194
 20
-44.72196544865562
 30
0.0
 11
100.260115171148
 21
-44.35202303422959
 31
0.0
  0
LINE
  5
D4D
330
1F
100
AcDbEntity
  8
2
  6
CONTINUOUS
370
25
 62
7
100
AcDbLine
 10
99.35984267083201
 20
-44.8280314658336
 30
0.0
 11
99.90656178055468
 21
-44.28131235611093
 31
0.0
  0
LINE
  5
D4E
330
1F
100
AcDbEntity
  8
2
  6
CONTINUOUS
370
25
 62
7
100
AcDbLine
 10
98.82951258494211
 20
-44.93409748301158
 30
0.0
 11
99.55300838996142
 21
-44.21060167799227
 31
0.0
  0
LINE
  5
D4F
330
1F
100
AcDbEntity
  8
2
  6
CONTINUOUS
370
25
 62
7
100
AcDbLine
 10
98.29918249905221
 20
-45.04016350018956
 30
0.0
 11
99.19945499936814
 21
-44.13989099987363
 31
0.0
  0
LINE
  5
D50
330
1F
100
AcDbEntity
  8
2
  6
CONTINUOUS
370
25
 62
7
100
AcDbLine
 10
97.76885241316226
 20
-45.14622951736756
 30
0.0
 11
98.84590160877485
 21
-44.06918032175497
 31
0.0
  0
LINE
  5
D51
330
1F
100
AcDbEntity
  8
2
  6
CONTINUOUS
370
25
 62
7
100
AcDbLine
 10
97.23852232727236
 20
-45.25229553454554
 30
0.0
 11
98.49234821818159
 21
-43.99846964363631
 31
0.0
  0
LINE
  5
D52
330
1F
100
AcDbEntity
  8
2
  6
CONTINUOUS
370
25
 62
7
100
AcDbLine
 10
96.70819224138246
 20
-45.35836155172352
 30
0.0
 11
98.13879482758833
 21
-43.92775896551765
 31
0.0
  0
LINE
  5
D53
330
1F
100
AcDbEntity
  8
2
  6
CONTINUOUS
370
25
 62
7
100
AcDbLine
 10
96.17786215549256
 20
-45.4644275689015
 30
0.0
 11
97.78524143699505
 21
-43.85704828739901
 31
0.0
  0
LINE
  5
D54
330
1F
100
AcDbEntity
  8
2
  6
CONTINUOUS
370
25
 62
7
100
AcDbLine
 10
96.0
 20
-45.21802565568214
 30
0.0
 11
97.43168804640179
 21
-43.78633760928035
 31
0.0
  0
LINE
  5
D55
330
1F
100
AcDbEntity
  8
2
  6
CONTINUOUS
370
25
 62
7
100
AcDbLine
 10
96.0
 20
-44.79376158697019
 30
0.0
 11
97.0781346558085
 21
-43.71562693116169
 31
0.0
  0
LINE
  5
D56
330
1F
100
AcDbEntity
  8
2
  6
CONTINUOUS
370
25
 62
7
100
AcDbLine
 10
96.0
 20
-44.36949751825827
 30
0.0
 11
96.72458126521524
 21
-43.64491625304304
 31
0.0
  0
LINE
  5
D57
330
1F
100
AcDbEntity
  8
2
  6
CONTINUOUS
370
25
 62
7
100
AcDbLine
 10
96.0
 20
-43.94523344954635
 30
0.0
 11
96.37102787462196
 21
-43.57420557492439
 31
0.0
  0
LINE
  5
D58
330
1F
100
AcDbEntity
  8
2
  6
CONTINUOUS
370
25
 62
7
100
AcDbLine
 10
96.0
 20
-43.5209693808344
 30
0.0
 11
96.01747448402867
 21
-43.50349489680573
 31
0.0
  0
LINE
  5
D59
330
1F
100
AcDbEntity
  8
2
  6
CONTINUOUS
370
25
 62
7
100
AcDbLine
 10
96.0
 20
-45.08831175456787
 30
0.0
 11
96.34307353786012
 21
-45.43138529242798
 31
0.0
  0
LINE
  5
D5A
330
1F
100
AcDbEntity
  8
2
  6
CONTINUOUS
370
25
 62
7
100
AcDbLine
 10
96.0
 20
-44.66404768585594
 30
0.0
 11
96.69662692845338
 21
-45.36067461430931
 31
0.0
  0
LINE
  5
D5B
330
1F
100
AcDbEntity
  8
2
  6
CONTINUOUS
370
25
 62
7
100
AcDbLine
 10
96.0
 20
-44.23978361714401
 30
0.0
 11
97.05018031904667
 21
-45.28996393619067
 31
0.0
  0
LINE
  5
D5C
330
1F
100
AcDbEntity
  8
2
  6
CONTINUOUS
370
25
 62
7
100
AcDbLine
 10
96.0
 20
-43.81551954843209
 30
0.0
 11
97.40373370963995
 21
-45.21925325807202
 31
0.0
  0
LINE
  5
D5D
330
1F
100
AcDbEntity
  8
2
  6
CONTINUOUS
370
25
 62
7
100
AcDbLine
 10
96.1359306503498
 20
-43.52718613006995
 30
0.0
 11
97.75728710023321
 21
-45.14854257995336
 31
0.0
  0
LINE
  5
D5E
330
1F
100
AcDbEntity
  8
2
  6
CONTINUOUS
370
25
 62
7
100
AcDbLine
 10
96.6662607362397
 20
-43.63325214724792
 30
0.0
 11
98.11084049082649
 21
-45.07783190183471
 31
0.0
  0
LINE
  5
D5F
330
1F
100
AcDbEntity
  8
2
  6
CONTINUOUS
370
25
 62
7
100
AcDbLine
 10
97.19659082212962
 20
-43.73931816442591
 30
0.0
 11
98.46439388141977
 21
-45.00712122371606
 31
0.0
  0
LINE
  5
D60
330
1F
100
AcDbEntity
  8
2
  6
CONTINUOUS
370
25
 62
7
100
AcDbLine
 10
97.72692090801954
 20
-43.8453841816039
 30
0.0
 11
98.81794727201304
 21
-44.9364105455974
 31
0.0
  0
LINE
  5
D61
330
1F
100
AcDbEntity
  8
2
  6
CONTINUOUS
370
25
 62
7
100
AcDbLine
 10
98.25725099390945
 20
-43.95145019878188
 30
0.0
 11
99.1715006626063
 21
-44.86569986747874
 31
0.0
  0
LINE
  5
D62
330
1F
100
AcDbEntity
  8
2
  6
CONTINUOUS
370
25
 62
7
100
AcDbLine
 10
98.78758107979935
 20
-44.05751621595986
 30
0.0
 11
99.52505405319958
 21
-44.79498918936009
 31
0.0
  0
LINE
  5
D63
330
1F
100
AcDbEntity
  8
2
  6
CONTINUOUS
370
25
 62
7
100
AcDbLine
 10
99.31791116568927
 20
-44.16358223313784
 30
0.0
 11
99.87860744379286
 21
-44.72427851124144
 31
0.0
  0
LINE
  5
D64
330
1F
100
AcDbEntity
  8
2
  6
CONTINUOUS
370
25
 62
7
100
AcDbLine
 10
99.84824125157918
 20
-44.26964825031583
 30
0.0
 11
100.2321608343861
 21
-44.65356783312279
 31
0.0
  0
LINE
  5
D65
330
1F
100
AcDbEntity
  8
2
  6
CONTINUOUS
370
25
 62
7
100
AcDbLine
 10
100.3785713374691
 20
-44.37571426749381
 30
0.0
 11
100.5857142249794
 21
-44.58285715500412
 31
0.0
  0
LINE
  5
D66
330
1F
100
AcDbEntity
  8
2
  6
CONTINUOUS
370
25
 62
7
100
AcDbLine
 10
100.908901423359
 20
-44.48178028467178
 30
0.0
 11
100.9392676155727
 21
-44.51214647688547
 31
0.0
  0
TEXT
  5
D67
330
1F
100
AcDbEntity
  8
2
  6
CONTINUOUS
370
25
 62
7
100
AcDbText
 10
46.66
 20
-43.0
 30
0.0
 40
3.5
  1
94.68
 72
     1
 11
53.66
 21
-43.0
 31
0.0
100
AcDbText
  0
LINE
  5
D68
330
1F
100
AcDbEntity
  8
2
  6
CONTINUOUS
370
25
 62
7
100
AcDbLine
 10
99.82842712
 20
-11.32842712
 30
0.0
 11
112.9999999966896
 21
-24.49999999668957
 31
0.0
  0
LINE
  5
D69
330
1F
100
AcDbEntity
  8
2
  6
CONTINUOUS
370
25
 62
7
100
AcDbLine
 10
112.9999999966896
 20
-24.49999999668957
 30
0.0
 11
116.9749999966896
 21
-24.49999999668957
 31
0.0
  0
LINE
  5
D6A
330
1F
100
AcDbEntity
  8
2
  6
CONTINUOUS
370
25
 62
7
100
AcDbLine
 10
99.82842712
 20
-11.32842712
 30
0.0
 11
96.99999999525382
 21
-8.49999999525381
 31
0.0
  0
LINE
  5
D6B
330
1F
100
AcDbEntity
  8
2
  6
CONTINUOUS
370
25
 62
7
100
AcDbLine
 10
99.82842712
 20
-11.32842712
 30
0.0
 11
104.0710678071193
 21
-14.15685424474619
 31
0.0
  0
LINE
  5
D6C
330
1F
100
AcDbEntity
  8
2
  6
CONTINUOUS
370
25
 62
7
100
AcDbLine
 10
104.0710678071193
 20
-14.15685424474619
 30
0.0
 11
102.6568542447462
 21
-15.57106780711928
 31
0.0
  0
LINE
  5
D6D
330
1F
100
AcDbEntity
  8
2
  6
CONTINUOUS
370
25
 62
7
100
AcDbLine
 10
102.6568542447462
 20
-15.57106780711928
 30
0.0
 11
99.82842712
 21
-11.32842712
 31
0.0
  0
LINE
  5
D6E
330
1F
100
AcDbEntity
  8
2
  6
CONTINUOUS
370
25
 62
7
100
AcDbLine
 10
102.5435862147461
 20
-15.40116576211915
 30
0.0
 11
103.9011657621192
 21
-14.0435862147461
 31
0.0
  0
LINE
  5
D6F
330
1F
100
AcDbEntity
  8
2
  6
CONTINUOUS
370
25
 62
7
100
AcDbLine
 10
102.3738805872614
 20
-15.146607320892
 30
0.0
 11
103.646607320892
 21
-13.87388058726134
 31
0.0
  0
LINE
  5
D70
330
1F
100
AcDbEntity
  8
2
  6
CONTINUOUS
370
25
 62
7
100
AcDbLine
 10
102.2041749597766
 20
-14.89204887966486
 30
0.0
 11
103.3920488796649
 21
-13.70417495977657
 31
0.0
  0
LINE
  5
D71
330
1F
100
AcDbEntity
  8
2
  6
CONTINUOUS
370
25
 62
7
100
AcDbLine
 10
102.0344693322918
 20
-14.63749043843771
 30
0.0
 11
103.1374904384377
 21
-13.53446933229181
 31
0.0
  0
LINE
  5
D72
330
1F
100
AcDbEntity
  8
2
  6
CONTINUOUS
370
25
 62
7
100
AcDbLine
 10
101.864763704807
 20
-14.38293199721055
 30
0.0
 11
102.8829319972106
 21
-13.36476370480703
 31
0.0
  0
LINE
  5
D73
330
1F
100
AcDbEntity
  8
2
  6
CONTINUOUS
370
25
 62
7
100
AcDbLine
 10
101.6950580773223
 20
-14.1283735559834
 30
0.0
 11
102.6283735559834
 21
-13.19505807732227
 31
0.0
  0
LINE
  5
D74
330
1F
100
AcDbEntity
  8
2
  6
CONTINUOUS
370
25
 62
7
100
AcDbLine
 10
101.5253524498375
 20
-13.87381511475624
 30
0.0
 11
102.3738151147562
 21
-13.0253524498375
 31
0.0
  0
LINE
  5
D75
330
1F
100
AcDbEntity
  8
2
  6
CONTINUOUS
370
25
 62
7
100
AcDbLine
 10
101.3556468223527
 20
-13.61925667352909
 30
0.0
 11
102.1192566735291
 21
-12.85564682235274
 31
0.0
  0
LINE
  5
D76
330
1F
100
AcDbEntity
  8
2
  6
CONTINUOUS
370
25
 62
7
100
AcDbLine
 10
101.185941194868
 20
-13.36469823230192
 30
0.0
 11
101.8646982323019
 21
-12.68594119486797
 31
0.0
  0
LINE
  5
D77
330
1F
100
AcDbEntity
  8
2
  6
CONTINUOUS
370
25
 62
7
100
AcDbLine
 10
101.0162355673832
 20
-13.11013979107477
 30
0.0
 11
101.6101397910748
 21
-12.51623556738321
 31
0.0
  0
LINE
  5
D78
330
1F
100
AcDbEntity
  8
2
  6
CONTINUOUS
370
25
 62
7
100
AcDbLine
 10
100.8465299398984
 20
-12.85558134984763
 30
0.0
 11
101.3555813498476
 21
-12.34652993989843
 31
0.0
  0
LINE
  5
D79
330
1F
100
AcDbEntity
  8
2
  6
CONTINUOUS
370
25
 62
7
100
AcDbLine
 10
100.6768243124137
 20
-12.60102290862048
 30
0.0
 11
101.1010229086205
 21
-12.17682431241366
 31
0.0
  0
LINE
  5
D7A
330
1F
100
AcDbEntity
  8
2
  6
CONTINUOUS
370
25
 62
7
100
AcDbLine
 10
100.5071186849289
 20
-12.34646446739332
 30
0.0
 11
100.8464644673933
 21
-12.0071186849289
 31
0.0
  0
LINE
  5
D7B
330
1F
100
AcDbEntity
  8
2
  6
CONTINUOUS
370
25
 62
7
100
AcDbLine
 10
100.3374130574441
 20
-12.09190602616616
 30
0.0
 11
100.5919060261662
 21
-11.83741305744412
 31
0.0
  0
LINE
  5
D7C
330
1F
100
AcDbEntity
  8
2
  6
CONTINUOUS
370
25
 62
7
100
AcDbLine
 10
100.1677074299593
 20
-11.83734758493901
 30
0.0
 11
100.337347584939
 21
-11.66770742995936
 31
0.0
  0
LINE
  5
D7D
330
1F
100
AcDbEntity
  8
2
  6
CONTINUOUS
370
25
 62
7
100
AcDbLine
 10
99.99800180247459
 20
-11.58278914371185
 30
0.0
 11
100.0827891437118
 21
-11.49800180247459
 31
0.0
  0
LINE
  5
D7E
330
1F
100
AcDbEntity
  8
2
  6
CONTINUOUS
370
25
 62
7
100
AcDbLine
 10
102.0316308106844
 20
-14.63323265602655
 30
0.0
 11
102.8131601032616
 21
-15.41476194860383
 31
0.0
  0
LINE
  5
D7F
330
1F
100
AcDbEntity
  8
2
  6
CONTINUOUS
370
25
 62
7
100
AcDbLine
 10
101.1831026732605
 20
-13.36044044989079
 30
0.0
 11
103.0252921376176
 21
-15.20262991424786
 31
0.0
  0
LINE
  5
D80
330
1F
100
AcDbEntity
  8
2
  6
CONTINUOUS
370
25
 62
7
100
AcDbLine
 10
100.3345745358367
 20
-12.08764824375504
 30
0.0
 11
103.2374241719736
 21
-14.9904978798919
 31
0.0
  0
LINE
  5
D81
330
1F
100
AcDbEntity
  8
2
  6
CONTINUOUS
370
25
 62
7
100
AcDbLine
 10
100.3419982023808
 20
-11.67080784158718
 30
0.0
 11
103.4495562063295
 21
-14.77836584553593
 31
0.0
  0
LINE
  5
D82
330
1F
100
AcDbEntity
  8
2
  6
CONTINUOUS
370
25
 62
7
100
AcDbLine
 10
101.6147904085165
 20
-12.51933597901102
 30
0.0
 11
103.6616882406855
 21
-14.56623381117997
 31
0.0
  0
LINE
  5
D83
330
1F
100
AcDbEntity
  8
2
  6
CONTINUOUS
370
25
 62
7
100
AcDbLine
 10
102.8875826146523
 20
-13.36786411643486
 30
0.0
 11
103.8738202750415
 21
-14.35410177682401
 31
0.0
  0
TEXT
  5
D84
330
1F
100
AcDbEntity
  8
2
  6
CONTINUOUS
370
25
 62
7
100
AcDbText
 10
113.8208333300229
 20
-22.99999999668957
 30
0.0
 40
3.5
  1
4
 72
     1
 11
114.9874999966896
 21
-22.99999999668957
 31
0.0
100
AcDbText
  0
LINE
  5
D85
330
1F
100
AcDbEntity
  8
SK1
  6
CONTINUOUS
370
50
 62
4
100
AcDbLine
 10
0.0
 20
0.0
 30
0.0
 11
2.5
 21
0.0
 31
0.0
  0
LINE
  5
D86
330
1F
100
AcDbEntity
  8
SK1
  6
CONTINUOUS
370
50
 62
4
100
AcDbLine
 10
0.0
 20
0.0
 30
0.0
 11
0.0
 21
2.5
 31
0.0
  0
ARC
  5
D87
330
1F
100
AcDbEntity
  8
SK1
  6
CONTINUOUS
370
50
 62
4
100
AcDbCircle
 10
0.0
 20
0.0
 30
0.0
 40
2.5
100
AcDbArc
 50
0.0
 51
90.0
  0
LINE
  5
D88
330
1F
100
AcDbEntity
  8
SK1
  6
CONTINUOUS
370
50
 62
4
100
AcDbLine
 10
0.0
 20
0.0
 30
0.0
 11
-2.5
 21
0.0
 31
0.0
  0
ARC
  5
D89
330
1F
100
AcDbEntity
  8
SK1
  6
CONTINUOUS
370
50
 62
4
100
AcDbCircle
 10
0.0
 20
0.0
 30
0.0
 40
2.5
100
AcDbArc
 50
180.0
 51
270.0
  0
LINE
  5
D8A
330
1F
100
AcDbEntity
  8
SK1
  6
CONTINUOUS
370
50
 62
4
100
AcDbLine
 10
0.0
 20
-2.5
 30
0.0
 11
0.0
 21
0.0
 31
0.0
  0
ARC
  5
D8B
330
1F
100
AcDbEntity
  8
SK1
  6
CONTINUOUS
370
50
 62
4
100
AcDbCircle
 10
0.0
 20
0.0
 30
0.0
 40
2.5
100
AcDbArc
 50
270.0
 51
0.0
  0
ARC
  5
D8C
330
1F
100
AcDbEntity
  8
SK1
  6
CONTINUOUS
370
50
 62
4
100
AcDbCircle
 10
0.0
 20
0.0
 30
0.0
 40
2.5
100
AcDbArc
 50
90.0
 51
180.0
  0
LINE
  5
D8D
330
1F
100
AcDbEntity
  8
SK1
  6
CONTINUOUS
370
50
 62
4
100
AcDbLine
 10
-0.31832627443191
 20
-2.479495909600069
 30
0.0
 11
0.0
 21
-2.161169635168159
 31
0.0
  0
LINE
  5
D8E
330
1F
100
AcDbEntity
  8
SK1
  6
CONTINUOUS
370
50
 62
4
100
AcDbLine
 10
2.16116963516816
 20
0.0
 30
0.0
 11
2.479495909600069
 21
0.3183262744319091
 31
0.0
  0
LINE
  5
D8F
330
1F
100
AcDbEntity
  8
SK1
  6
CONTINUOUS
370
50
 62
4
100
AcDbLine
 10
-0.615281817185723
 20
-2.422898061760609
 30
0.0
 11
0.0
 21
-1.807616244574886
 31
0.0
  0
LINE
  5
D90
330
1F
100
AcDbEntity
  8
SK1
  6
CONTINUOUS
370
50
 62
4
100
AcDbLine
 10
1.807616244574887
 20
0.0
 30
0.0
 11
2.422898061760609
 21
0.6152818171857222
 31
0.0
  0
LINE
  5
D91
330
1F
100
AcDbEntity
  8
SK1
  6
CONTINUOUS
370
50
 62
4
100
AcDbLine
 10
-0.8835965231639721
 20
-2.337659377145585
 30
0.0
 11
0.0
 21
-1.454062853981614
 31
0.0
  0
LINE
  5
D92
330
1F
100
AcDbEntity
  8
SK1
  6
CONTINUOUS
370
50
 62
4
100
AcDbLine
 10
1.454062853981615
 20
0.0
 30
0.0
 11
2.337659377145586
 21
0.8835965231639715
 31
0.0
  0
LINE
  5
D93
330
1F
100
AcDbEntity
  8
SK1
  6
CONTINUOUS
370
50
 62
4
100
AcDbLine
 10
-1.128779664263143
 20
-2.229289127651483
 30
0.0
 11
0.0
 21
-1.100509463388341
 31
0.0
  0
LINE
  5
D94
330
1F
100
AcDbEntity
  8
SK1
  6
CONTINUOUS
370
50
 62
4
100
AcDbLine
 10
1.100509463388341
 20
0.0
 30
0.0
 11
2.229289127651484
 21
1.128779664263142
 31
0.0
  0
LINE
  5
D95
330
1F
100
AcDbEntity
  8
SK1
  6
CONTINUOUS
370
50
 62
4
100
AcDbLine
 10
-1.354032791010379
 20
-2.100988863805446
 30
0.0
 11
0.0
 21
-0.7469560727950677
 31
0.0
  0
LINE
  5
D96
330
1F
100
AcDbEntity
  8
SK1
  6
CONTINUOUS
370
50
 62
4
100
AcDbLine
 10
0.746956072795068
 20
0.0
 30
0.0
 11
2.100988863805446
 21
1.354032791010378
 31
0.0
  0
LINE
  5
D97
330
1F
100
AcDbEntity
  8
SK1
  6
CONTINUOUS
370
50
 62
4
100
AcDbLine
 10
-1.559387394659872
 20
-1.952790076861666
 30
0.0
 11
0.0
 21
-0.3934026822017946
 31
0.0
  0
LINE
  5
D98
330
1F
100
AcDbEntity
  8
SK1
  6
CONTINUOUS
370
50
 62
4
100
AcDbLine
 10
0.3934026822017948
 20
0.0
 30
0.0
 11
1.952790076861667
 21
1.559387394659871
 31
0.0
  0
LINE
  5
D99
330
1F
100
AcDbEntity
  8
SK1
  6
CONTINUOUS
370
50
 62
4
100
AcDbLine
 10
-1.746970020883365
 20
-1.786819312491886
 30
0.0
 11
0.0
 21
-0.0398492916085216
 31
0.0
  0
LINE
  5
D9A
330
1F
100
AcDbEntity
  8
SK1
  6
CONTINUOUS
370
50
 62
4
100
AcDbLine
 10
0.0398492916085216
 20
0.0
 30
0.0
 11
1.786819312491887
 21
1.746970020883364
 31
0.0
  0
LINE
  5
D9B
330
1F
100
AcDbEntity
  8
SK1
  6
CONTINUOUS
370
50
 62
4
100
AcDbLine
 10
-1.917371878232655
 20
-1.603667779247902
 30
0.0
 11
-0.3137040989847517
 21
0.0
 31
0.0
  0
LINE
  5
D9C
330
1F
100
AcDbEntity
  8
SK1
  6
CONTINUOUS
370
50
 62
4
100
AcDbLine
 10
0.0
 20
0.3137040989847515
 30
0.0
 11
1.603667779247903
 21
1.917371878232654
 31
0.0
  0
LINE
  5
D9D
330
1F
100
AcDbEntity
  8
SK1
  6
CONTINUOUS
370
50
 62
4
100
AcDbLine
 10
-2.068741231122433
 20
-1.401483741544407
 30
0.0
 11
-0.6672574895780249
 21
0.0
 31
0.0
  0
LINE
  5
D9E
330
1F
100
AcDbEntity
  8
SK1
  6
CONTINUOUS
370
50
 62
4
100
AcDbLine
 10
0.0
 20
0.6672574895780246
 30
0.0
 11
1.401483741544409
 21
2.068741231122432
 31
0.0
  0
LINE
  5
D9F
330
1F
100
AcDbEntity
  8
SK1
  6
CONTINUOUS
370
50
 62
4
100
AcDbLine
 10
-2.2023876557675
 20
-1.181576775596201
 30
0.0
 11
-1.020810880171298
 21
0.0
 31
0.0
  0
LINE
  5
DA0
330
1F
100
AcDbEntity
  8
SK1
  6
CONTINUOUS
370
50
 62
4
100
AcDbLine
 10
0.0
 20
1.020810880171298
 30
0.0
 11
1.181576775596202
 21
2.202387655767499
 31
0.0
  0
LINE
  5
DA1
330
1F
100
AcDbEntity
  8
SK1
  6
CONTINUOUS
370
50
 62
4
100
AcDbLine
 10
-2.315450943493525
 20
-0.9410866727289533
 30
0.0
 11
-1.374364270764571
 21
0.0
 31
0.0
  0
LINE
  5
DA2
330
1F
100
AcDbEntity
  8
SK1
  6
CONTINUOUS
370
50
 62
4
100
AcDbLine
 10
0.0
 20
1.374364270764571
 30
0.0
 11
0.9410866727289543
 21
2.315450943493524
 31
0.0
  0
LINE
  5
DA3
330
1F
100
AcDbEntity
  8
SK1
  6
CONTINUOUS
370
50
 62
4
100
AcDbLine
 10
-2.405290600131854
 20
-0.6773729387740097
 30
0.0
 11
-1.727917661357844
 21
0.0
 31
0.0
  0
LINE
  5
DA4
330
1F
100
AcDbEntity
  8
SK1
  6
CONTINUOUS
370
50
 62
4
100
AcDbLine
 10
0.0
 20
1.727917661357844
 30
0.0
 11
0.6773729387740106
 21
2.405290600131854
 31
0.0
  0
LINE
  5
DA5
330
1F
100
AcDbEntity
  8
SK1
  6
CONTINUOUS
370
50
 62
4
100
AcDbLine
 10
-2.468598823056026
 20
-0.3871277711049084
 30
0.0
 11
-2.081471051951118
 21
0.0
 31
0.0
  0
LINE
  5
DA6
330
1F
100
AcDbEntity
  8
SK1
  6
CONTINUOUS
370
50
 62
4
100
AcDbLine
 10
0.0
 20
2.081471051951117
 30
0.0
 11
0.3871277711049085
 21
2.468598823056025
 31
0.0
  0
LINE
  5
DA7
330
1F
100
AcDbEntity
  8
SK1
  6
CONTINUOUS
370
50
 62
4
100
AcDbLine
 10
-2.498020276172772
 20
-0.0629958336283822
 30
0.0
 11
-2.43502444254439
 21
0.0
 31
0.0
  0
LINE
  5
DA8
330
1F
100
AcDbEntity
  8
SK1
  6
CONTINUOUS
370
50
 62
4
100
AcDbLine
 10
0.0
 20
2.435024442544389
 30
0.0
 11
0.0629958336283828
 21
2.498020276172772
 31
0.0
  0
LINE
  5
DA9
330
1F
100
AcDbEntity
  8
SK1
  6
CONTINUOUS
370
50
 62
4
100
AcDbLine
 10
-2.337336523620827
 20
-0.8844932833271533
 30
0.0
 11
-0.8844932833271509
 21
-2.337336523620827
 31
0.0
  0
LINE
  5
DAA
330
1F
100
AcDbEntity
  8
SK1
  6
CONTINUOUS
370
50
 62
4
100
AcDbLine
 10
-2.466237059966593
 20
-0.4020393563881135
 30
0.0
 11
-0.4020393563881111
 21
-2.466237059966594
 31
0.0
  0
LINE
  5
DAB
330
1F
100
AcDbEntity
  8
SK1
  6
CONTINUOUS
370
50
 62
4
100
AcDbLine
 10
-2.499522297881596
 20
-0.0152007278798383
 30
0.0
 11
-0.0152007278798351
 21
-2.499522297881596
 31
0.0
  0
LINE
  5
DAC
330
1F
100
AcDbEntity
  8
SK1
  6
CONTINUOUS
370
50
 62
4
100
AcDbLine
 10
-2.16116963516816
 20
0.0
 30
0.0
 11
0.0
 21
-2.161169635168158
 31
0.0
  0
LINE
  5
DAD
330
1F
100
AcDbEntity
  8
SK1
  6
CONTINUOUS
370
50
 62
4
100
AcDbLine
 10
-1.807616244574888
 20
0.0
 30
0.0
 11
0.0
 21
-1.807616244574886
 31
0.0
  0
LINE
  5
DAE
330
1F
100
AcDbEntity
  8
SK1
  6
CONTINUOUS
370
50
 62
4
100
AcDbLine
 10
-1.454062853981615
 20
0.0
 30
0.0
 11
0.0
 21
-1.454062853981613
 31
0.0
  0
LINE
  5
DAF
330
1F
100
AcDbEntity
  8
SK1
  6
CONTINUOUS
370
50
 62
4
100
AcDbLine
 10
-1.100509463388341
 20
0.0
 30
0.0
 11
0.0
 21
-1.10050946338834
 31
0.0
  0
LINE
  5
DB0
330
1F
100
AcDbEntity
  8
SK1
  6
CONTINUOUS
370
50
 62
4
100
AcDbLine
 10
-0.7469560727950676
 20
0.0
 30
0.0
 11
0.0
 21
-0.7469560727950668
 31
0.0
  0
LINE
  5
DB1
330
1F
100
AcDbEntity
  8
SK1
  6
CONTINUOUS
370
50
 62
4
100
AcDbLine
 10
-0.3934026822017942
 20
0.0
 30
0.0
 11
0.0
 21
-0.3934026822017938
 31
0.0
  0
LINE
  5
DB2
330
1F
100
AcDbEntity
  8
SK1
  6
CONTINUOUS
370
50
 62
4
100
AcDbLine
 10
-0.0398492916085216
 20
0.0
 30
0.0
 11
0.0
 21
-0.0398492916085216
 31
0.0
  0
LINE
  5
DB3
330
1F
100
AcDbEntity
  8
SK1
  6
CONTINUOUS
370
50
 62
4
100
AcDbLine
 10
0.0
 20
0.3137040989847515
 30
0.0
 11
0.3137040989847518
 21
0.0
 31
0.0
  0
LINE
  5
DB4
330
1F
100
AcDbEntity
  8
SK1
  6
CONTINUOUS
370
50
 62
4
100
AcDbLine
 10
0.0
 20
0.6672574895780246
 30
0.0
 11
0.6672574895780253
 21
0.0
 31
0.0
  0
LINE
  5
DB5
330
1F
100
AcDbEntity
  8
SK1
  6
CONTINUOUS
370
50
 62
4
100
AcDbLine
 10
0.0
 20
1.020810880171298
 30
0.0
 11
1.020810880171299
 21
0.0
 31
0.0
  0
LINE
  5
DB6
330
1F
100
AcDbEntity
  8
SK1
  6
CONTINUOUS
370
50
 62
4
100
AcDbLine
 10
0.0
 20
1.37436427076457
 30
0.0
 11
1.374364270764571
 21
0.0
 31
0.0
  0
LINE
  5
DB7
330
1F
100
AcDbEntity
  8
SK1
  6
CONTINUOUS
370
50
 62
4
100
AcDbLine
 10
0.0
 20
1.727917661357843
 30
0.0
 11
1.727917661357845
 21
0.0
 31
0.0
  0
LINE
  5
DB8
330
1F
100
AcDbEntity
  8
SK1
  6
CONTINUOUS
370
50
 62
4
100
AcDbLine
 10
0.0
 20
2.081471051951116
 30
0.0
 11
2.081471051951118
 21
0.0
 31
0.0
  0
LINE
  5
DB9
330
1F
100
AcDbEntity
  8
SK1
  6
CONTINUOUS
370
50
 62
4
100
AcDbLine
 10
0.0
 20
2.435024442544389
 30
0.0
 11
2.435024442544392
 21
0.0
 31
0.0
  0
LINE
  5
DBA
330
1F
100
AcDbEntity
  8
SK1
  6
CONTINUOUS
370
50
 62
4
100
AcDbLine
 10
0.3077647139123103
 20
2.480813119225352
 30
0.0
 11
2.480813119225352
 21
0.307764713912313
 31
0.0
  0
LINE
  5
DBB
330
1F
100
AcDbEntity
  8
SK1
  6
CONTINUOUS
370
50
 62
4
100
AcDbLine
 10
0.7611924397506667
 20
2.380938783980268
 30
0.0
 11
2.380938783980268
 21
0.7611924397506691
 31
0.0
  0
LINE
  5
DBC
330
1F
100
AcDbEntity
  8
SK1
  6
CONTINUOUS
370
50
 62
4
100
AcDbLine
 10
1.48586376213526
 20
2.009820852188948
 30
0.0
 11
2.009820852188946
 21
1.485863762135263
 31
0.0
  0
LINE
  5
DBD
330
1F
100
AcDbEntity
  8
4
  6
LONGDASH_DASH
370
25
 62
2
100
AcDbLine
 10
0.0
 20
0.0
 30
0.0
 11
101.0
 21
0.0
 31
0.0
  0
LINE
  5
DBE
330
1F
100
AcDbEntity
  8
SK4
  6
LONGDASH_DASH
370
25
 62
2
100
AcDbLine
 10
-62.0
 20
0.0
 30
0.0
 11
107.0
 21
0.0
 31
0.0
  0
ENDSEC
  0
SECTION
  2
OBJECTS
  0
DICTIONARY
  5
C
330
0
100
AcDbDictionary
281
     1
  3
ACAD_GROUP
350
D
  3
ACAD_LAYOUT
350
1A
  3
ACAD_MATERIAL
350
3B
  3
ACAD_MLEADERSTYLE
350
DC1
  3
ACAD_MLINESTYLE
350
17
  3
ACAD_PLOTSETTINGS
350
19
  3
ACAD_PLOTSTYLENAME
350
E
  3
ACAD_SCALELIST
350
481
  3
ACAD_VISUALSTYLE
350
2A
  3
AcDbVariableDictionary
350
DBF
  0
DICTIONARY
  5
D
102
{ACAD_REACTORS
330
C
102
}
330
C
100
AcDbDictionary
281
     1
  0
DICTIONARY
  5
1A
102
{ACAD_REACTORS
330
C
102
}
330
C
100
AcDbDictionary
281
     1
  3
Layout1
350
1E
  3
Layout2
350
26
  3
Model
350
22
  0
DICTIONARY
  5
3B
102
{ACAD_REACTORS
330
C
102
}
330
C
100
AcDbDictionary
281
     1
  3
ByBlock
350
3D
  3
ByLayer
350
3C
  3
Global
350
3E
  0
DICTIONARY
  5
DC1
102
{ACAD_REACTORS
330
C
102
}
330
C
100
AcDbDictionary
281
     1
  0
DICTIONARY
  5
17
102
{ACAD_REACTORS
330
C
102
}
330
C
100
AcDbDictionary
281
     1
  3
Standard
350
18
  0
DICTIONARY
  5
19
102
{ACAD_REACTORS
330
C
102
}
330
C
100
AcDbDictionary
281
     1
  0
ACDBDICTIONARYWDFLT
  5
E
102
{ACAD_REACTORS
330
C
102
}
330
C
100
AcDbDictionary
281
     1
  3
Normal
350
F
100
AcDbDictionaryWithDefault
340
F
  0
DICTIONARY
  5
481
102
{ACAD_REACTORS
330
C
102
}
330
C
100
AcDbDictionary
281
     1
  3
A0
350
482
  3
A1
350
483
  3
A2
350
484
  3
A3
350
485
  3
A4
350
486
  3
A5
350
487
  3
A6
350
488
  3
A7
350
489
  3
A8
350
48A
  3
A9
350
48B
  3
B0
350
48C
  3
B1
350
48D
  3
B2
350
48E
  3
B3
350
48F
  3
B4
350
490
  3
B5
350
491
  3
B6
350
492
  3
B7
350
493
  3
B8
350
494
  3
B9
350
495
  3
C0
350
496
  3
C1
350
497
  3
C2
350
498
  3
C3
350
499
  3
C4
350
49A
  3
C5
350
49B
  3
C6
350
49C
  3
C7
350
49D
  3
C8
350
49E
  3
C9
350
49F
  3
D0
350
4A0
  3
D1
350
4A1
  3
D2
350
4A2
  0
DICTIONARY
  5
2A
102
{ACAD_REACTORS
330
C
102
}
330
C
100
AcDbDictionary
281
     1
  3
2dWireframe
350
2F
  3
3D Hidden
350
31
  3
3dWireframe
350
30
  3
Basic
350
32
  3
Brighten
350
36
  3
ColorChange
350
3A
  3
Conceptual
350
34
  3
Dim
350
35
  3
Facepattern
350
39
  3
Flat
350
2B
  3
FlatWithEdges
350
2C
  3
Gouraud
350
2D
  3
GouraudWithEdges
350
2E
  3
Linepattern
350
38
  3
Realistic
350
33
  3
Thicken
350
37
  0
DICTIONARY
  5
DBF
102
{ACAD_REACTORS
330
C
102
}
330
C
100
AcDbDictionary
281
     1
  3
CANNOSCALE
350
DC4
  3
DIMASSOC
350
DC5
  3
HIDETEXT
350
DC6
  3
PSOLHEIGHT
350
DC3
  3
PSOLWIDTH
350
DC2
  0
LAYOUT
  5
1E
102
{ACAD_REACTORS
330
1A
102
}
330
1A
100
AcDbPlotSettings
  1

  2
none_device
  4

  6

 40
0.0
 41
0.0
 42
0.0
 43
0.0
 44
0.0
 45
0.0
 46
0.0
 47
0.0
 48
0.0
 49
0.0
140
0.0
141
0.0
142
1.0
143
1.0
 70
   688
 72
     0
 73
     0
 74
     5
  7

 75
    16
147
1.0
148
0.0
149
0.0
100
AcDbLayout
  1
Layout1
 70
     1
 71
     1
 10
0.0
 20
0.0
 11
420.0
 21
297.0
 12
0.0
 22
0.0
 32
0.0
 14
1.000000000000000E+20
 24
1.000000000000000E+20
 34
1.000000000000000E+20
 15
-1.000000000000000E+20
 25
-1.000000000000000E+20
 35
-1.000000000000000E+20
146
0.0
 13
0.0
 23
0.0
 33
0.0
 16
1.0
 26
0.0
 36
0.0
 17
0.0
 27
1.0
 37
0.0
 76
     0
330
1B
  0
LAYOUT
  5
26
102
{ACAD_REACTORS
330
1A
102
}
330
1A
100
AcDbPlotSettings
  1

  2
none_device
  4

  6

 40
0.0
 41
0.0
 42
0.0
 43
0.0
 44
0.0
 45
0.0
 46
0.0
 47
0.0
 48
0.0
 49
0.0
140
0.0
141
0.0
142
1.0
143
1.0
 70
   688
 72
     0
 73
     0
 74
     5
  7

 75
    16
147
1.0
148
0.0
149
0.0
100
AcDbLayout
  1
Layout2
 70
     1
 71
     2
 10
0.0
 20
0.0
 11
0.0
 21
0.0
 12
0.0
 22
0.0
 32
0.0
 14
0.0
 24
0.0
 34
0.0
 15
0.0
 25
0.0
 35
0.0
146
0.0
 13
0.0
 23
0.0
 33
0.0
 16
1.0
 26
0.0
 36
0.0
 17
0.0
 27
1.0
 37
0.0
 76
     0
330
23
  0
LAYOUT
  5
22
102
{ACAD_REACTORS
330
1A
102
}
330
1A
100
AcDbPlotSettings
  1

  2
none_device
  4

  6

 40
0.0
 41
0.0
 42
0.0
 43
0.0
 44
0.0
 45
0.0
 46
0.0
 47
0.0
 48
0.0
 49
0.0
140
0.0
141
0.0
142
1.0
143
1.0
 70
  1712
 72
     0
 73
     0
 74
     0
  7

 75
     0
147
1.0
148
0.0
149
0.0
100
AcDbLayout
  1
Model
 70
     1
 71
     0
 10
0.0
 20
0.0
 11
420.0
 21
297.0
 12
0.0
 22
0.0
 32
0.0
 14
0.0
 24
0.0
 34
0.0
 15
25.0
 25
35.0
 35
0.0
146
0.0
 13
0.0
 23
0.0
 33
0.0
 16
1.0
 26
0.0
 36
0.0
 17
0.0
 27
1.0
 37
0.0
 76
     0
330
1F
331
29
  0
MATERIAL
  5
3D
102
{ACAD_REACTORS
330
3B
102
}
102
{ACAD_XDICTIONARY
360
DE9
102
}
330
3B
100
AcDbMaterial
  1
ByBlock
  0
MATERIAL
  5
3C
102
{ACAD_REACTORS
330
3B
102
}
102
{ACAD_XDICTIONARY
360
DE7
102
}
330
3B
100
AcDbMaterial
  1
ByLayer
  0
MATERIAL
  5
3E
102
{ACAD_REACTORS
330
3B
102
}
102
{ACAD_XDICTIONARY
360
DEB
102
}
330
3B
100
AcDbMaterial
  1
Global
  0
MLINESTYLE
  5
18
102
{ACAD_REACTORS
330
17
102
}
330
17
100
AcDbMlineStyle
  2
Standard
 70
     0
  3

 62
   256
 51
90.0
 52
90.0
 71
     2
 49
0.5
 62
   256
  6
BYLAYER
 49
-0.5
 62
   256
  6
BYLAYER
  0
ACDBPLACEHOLDER
  5
F
102
{ACAD_REACTORS
330
E
102
}
330
E
  0
SCALE
  5
482
102
{ACAD_REACTORS
330
481
102
}
330
481
100
AcDbScale
 70
     0
300
1:1
140
1.0
141
1.0
290
     1
  0
SCALE
  5
483
102
{ACAD_REACTORS
330
481
102
}
330
481
100
AcDbScale
 70
     0
300
1:2
140
1.0
141
2.0
290
     0
  0
SCALE
  5
484
102
{ACAD_REACTORS
330
481
102
}
330
481
100
AcDbScale
 70
     0
300
1:4
140
1.0
141
4.0
290
     0
  0
SCALE
  5
485
102
{ACAD_REACTORS
330
481
102
}
330
481
100
AcDbScale
 70
     0
300
1:5
140
1.0
141
5.0
290
     0
  0
SCALE
  5
486
102
{ACAD_REACTORS
330
481
102
}
330
481
100
AcDbScale
 70
     0
300
1:8
140
1.0
141
8.0
290
     0
  0
SCALE
  5
487
102
{ACAD_REACTORS
330
481
102
}
330
481
100
AcDbScale
 70
     0
300
1:10
140
1.0
141
10.0
290
     0
  0
SCALE
  5
488
102
{ACAD_REACTORS
330
481
102
}
330
481
100
AcDbScale
 70
     0
300
1:16
140
1.0
141
16.0
290
     0
  0
SCALE
  5
489
102
{ACAD_REACTORS
330
481
102
}
330
481
100
AcDbScale
 70
     0
300
1:20
140
1.0
141
20.0
290
     0
  0
SCALE
  5
48A
102
{ACAD_REACTORS
330
481
102
}
330
481
100
AcDbScale
 70
     0
300
1:30
140
1.0
141
30.0
290
     0
  0
SCALE
  5
48B
102
{ACAD_REACTORS
330
481
102
}
330
481
100
AcDbScale
 70
     0
300
1:40
140
1.0
141
40.0
290
     0
  0
SCALE
  5
48C
102
{ACAD_REACTORS
330
481
102
}
330
481
100
AcDbScale
 70
     0
300
1:50
140
1.0
141
50.0
290
     0
  0
SCALE
  5
48D
102
{ACAD_REACTORS
330
481
102
}
330
481
100
AcDbScale
 70
     0
300
1:100
140
1.0
141
100.0
290
     0
  0
SCALE
  5
48E
102
{ACAD_REACTORS
330
481
102
}
330
481
100
AcDbScale
 70
     0
300
2:1
140
2.0
141
1.0
290
     0
  0
SCALE
  5
48F
102
{ACAD_REACTORS
330
481
102
}
330
481
100
AcDbScale
 70
     0
300
4:1
140
4.0
141
1.0
290
     0
  0
SCALE
  5
490
102
{ACAD_REACTORS
330
481
102
}
330
481
100
AcDbScale
 70
     0
300
8:1
140
8.0
141
1.0
290
     0
  0
SCALE
  5
491
102
{ACAD_REACTORS
330
481
102
}
330
481
100
AcDbScale
 70
     0
300
10:1
140
10.0
141
1.0
290
     0
  0
SCALE
  5
492
102
{ACAD_REACTORS
330
481
102
}
330
481
100
AcDbScale
 70
     0
300
100:1
140
100.0
141
1.0
290
     0
  0
SCALE
  5
493
102
{ACAD_REACTORS
330
481
102
}
330
481
100
AcDbScale
 70
     0
300
1/128" = 1'-0"
140
0.0078125
141
12.0
290
     0
  0
SCALE
  5
494
102
{ACAD_REACTORS
330
481
102
}
330
481
100
AcDbScale
 70
     0
300
1/64" = 1'-0"
140
0.015625
141
12.0
290
     0
  0
SCALE
  5
495
102
{ACAD_REACTORS
330
481
102
}
330
481
100
AcDbScale
 70
     0
300
1/32" = 1'-0"
140
0.03125
141
12.0
290
     0
  0
SCALE
  5
496
102
{ACAD_REACTORS
330
481
102
}
330
481
100
AcDbScale
 70
     0
300
1/16" = 1'-0"
140
0.0625
141
12.0
290
     0
  0
SCALE
  5
497
102
{ACAD_REACTORS
330
481
102
}
330
481
100
AcDbScale
 70
     0
300
3/32" = 1'-0"
140
0.09375
141
12.0
290
     0
  0
SCALE
  5
498
102
{ACAD_REACTORS
330
481
102
}
330
481
100
AcDbScale
 70
     0
300
1/8" = 1'-0"
140
0.125
141
12.0
290
     0
  0
SCALE
  5
499
102
{ACAD_REACTORS
330
481
102
}
330
481
100
AcDbScale
 70
     0
300
3/16" = 1'-0"
140
0.1875
141
12.0
290
     0
  0
SCALE
  5
49A
102
{ACAD_REACTORS
330
481
102
}
330
481
100
AcDbScale
 70
     0
300
1/4" = 1'-0"
140
0.25
141
12.0
290
     0
  0
SCALE
  5
49B
102
{ACAD_REACTORS
330
481
102
}
330
481
100
AcDbScale
 70
     0
300
3/8" = 1'-0"
140
0.375
141
12.0
290
     0
  0
SCALE
  5
49C
102
{ACAD_REACTORS
330
481
102
}
330
481
100
AcDbScale
 70
     0
300
1/2" = 1'-0"
140
0.5
141
12.0
290
     0
  0
SCALE
  5
49D
102
{ACAD_REACTORS
330
481
102
}
330
481
100
AcDbScale
 70
     0
300
3/4" = 1'-0"
140
0.75
141
12.0
290
     0
  0
SCALE
  5
49E
102
{ACAD_REACTORS
330
481
102
}
330
481
100
AcDbScale
 70
     0
300
1" = 1'-0"
140
1.0
141
12.0
290
     0
  0
SCALE
  5
49F
102
{ACAD_REACTORS
330
481
102
}
330
481
100
AcDbScale
 70
     0
300
1-1/2" = 1'-0"
140
1.5
141
12.0
290
     0
  0
SCALE
  5
4A0
102
{ACAD_REACTORS
330
481
102
}
330
481
100
AcDbScale
 70
     0
300
3" = 1'-0"
140
3.0
141
12.0
290
     0
  0
SCALE
  5
4A1
102
{ACAD_REACTORS
330
481
102
}
330
481
100
AcDbScale
 70
     0
300
6" = 1'-0"
140
6.0
141
12.0
290
     0
  0
SCALE
  5
4A2
102
{ACAD_REACTORS
330
481
102
}
330
481
100
AcDbScale
 70
     0
300
1'-0" = 1'-0"
140
12.0
141
12.0
290
     0
  0
VISUALSTYLE
  5
2F
102
{ACAD_REACTORS
330
2A
102
}
102
{ACAD_XDICTIONARY
360
DCF
102
}
330
2A
100
AcDbVisualStyle
  2
2dWireframe
 70
     4
 71
     0
 72
     2
 73
     0
 90
        0
 40
-0.6
 41
-30.0
 62
     5
 63
     7
 74
     1
 91
        4
 64
     7
 65
   257
 75
     1
175
     1
 42
1.0
 92
        0
 66
   257
 43
1.0
 76
     1
 77
     6
 78
     2
 67
     7
 79
     5
170
     0
171
     0
290
     0
174
     0
 93
        1
 44
0.0
173
     0
291
     0
 45
0.0
1001
ACAD
1000
AcDbSavedByObjectVersion
1070
     0
  0
VISUALSTYLE
  5
31
102
{ACAD_REACTORS
330
2A
102
}
102
{ACAD_XDICTIONARY
360
DD3
102
}
330
2A
100
AcDbVisualStyle
  2
3D Hidden
 70
     6
 71
     1
 72
     2
 73
     2
 90
        0
 40
-0.6
 41
-30.0
 62
     5
 63
     7
 74
     2
 91
        2
 64
     7
 65
   257
 75
     2
175
     1
 42
40.0
 92
        0
 66
   257
 43
1.0
 76
     1
 77
     6
 78
     2
 67
     7
 79
     3
170
     0
171
     0
290
     0
174
     0
 93
        1
 44
0.0
173
     0
291
     0
 45
0.0
1001
ACAD
1000
AcDbSavedByObjectVersion
1070
     0
  0
VISUALSTYLE
  5
30
102
{ACAD_REACTORS
330
2A
102
}
102
{ACAD_XDICTIONARY
360
DD1
102
}
330
2A
100
AcDbVisualStyle
  2
3dWireframe
 70
     5
 71
     0
 72
     2
 73
     0
 90
        0
 40
-0.6
 41
-30.0
 62
     5
 63
     7
 74
     1
 91
        4
 64
     7
 65
   257
 75
     1
175
     1
 42
1.0
 92
        0
 66
   257
 43
1.0
 76
     1
 77
     6
 78
     2
 67
     7
 79
     5
170
     0
171
     0
290
     0
174
     0
 93
        1
 44
0.0
173
     0
291
     0
 45
0.0
1001
ACAD
1000
AcDbSavedByObjectVersion
1070
     0
  0
VISUALSTYLE
  5
32
102
{ACAD_REACTORS
330
2A
102
}
102
{ACAD_XDICTIONARY
360
DD5
102
}
330
2A
100
AcDbVisualStyle
  2
Basic
 70
     7
 71
     1
 72
     0
 73
     1
 90
        0
 40
-0.6
 41
-30.0
 62
     5
 63
     7
 74
     0
 91
        4
 64
     7
 65
   257
 75
     1
175
     1
 42
1.0
 92
        8
 66
     7
 43
1.0
 76
     1
 77
     6
 78
     2
 67
     7
 79
     5
170
     0
171
     0
290
     0
174
     0
 93
        1
 44
0.0
173
     0
291
     1
 45
0.0
1001
ACAD
1000
AcDbSavedByObjectVersion
1070
     0
  0
VISUALSTYLE
  5
36
102
{ACAD_REACTORS
330
2A
102
}
102
{ACAD_XDICTIONARY
360
DDD
102
}
330
2A
100
AcDbVisualStyle
  2
Brighten
 70
    12
 71
     2
 72
     2
 73
     0
 90
        0
 40
-0.6
 41
-30.0
 62
     5
 63
     7
 74
     1
 91
        4
 64
     7
 65
   257
 75
     1
175
     1
 42
1.0
 92
        8
 66
     7
 43
1.0
 76
     1
 77
     6
 78
     2
 67
     7
 79
     5
170
     0
171
     0
290
     0
174
     0
 93
        1
 44
50.0
173
     0
291
     1
 45
0.0
1001
ACAD
1000
AcDbSavedByObjectVersion
1070
     0
  0
VISUALSTYLE
  5
3A
102
{ACAD_REACTORS
330
2A
102
}
102
{ACAD_XDICTIONARY
360
DE5
102
}
330
2A
100
AcDbVisualStyle
  2
ColorChange
 70
    16
 71
     2
 72
     2
 73
     3
 90
        0
 40
-0.6
 41
-30.0
 62
     5
 63
     8
 74
     1
 91
        4
 64
     7
 65
   257
 75
     1
175
     1
 42
1.0
 92
        8
 66
     8
 43
1.0
 76
     1
 77
     6
 78
     2
 67
     7
 79
     5
170
     0
171
     0
290
     0
174
     0
 93
        1
 44
0.0
173
     0
291
     1
 45
0.0
1001
ACAD
1000
AcDbSavedByObjectVersion
1070
     0
  0
VISUALSTYLE
  5
34
102
{ACAD_REACTORS
330
2A
102
}
102
{ACAD_XDICTIONARY
360
DD9
102
}
330
2A
100
AcDbVisualStyle
  2
Conceptual
 70
     9
 71
     3
 72
     2
 73
     0
 90
        0
 40
-0.6
 41
-30.0
 62
     5
 63
     7
 74
     2
 91
        2
 64
     7
 65
   257
 75
     1
175
     1
 42
40.0
 92
        8
 66
     7
 43
1.0
 76
     1
 77
     6
 78
     2
 67
     7
 79
     3
170
     0
171
     0
290
     0
174
     0
 93
        1
 44
0.0
173
     0
291
     0
 45
0.0
1001
ACAD
1000
AcDbSavedByObjectVersion
1070
     0
  0
VISUALSTYLE
  5
35
102
{ACAD_REACTORS
330
2A
102
}
102
{ACAD_XDICTIONARY
360
DDB
102
}
330
2A
100
AcDbVisualStyle
  2
Dim
 70
    11
 71
     2
 72
     2
 73
     0
 90
        0
 40
-0.6
 41
-30.0
 62
     5
 63
     7
 74
     1
 91
        4
 64
     7
 65
   257
 75
     1
175
     1
 42
1.0
 92
        8
 66
     7
 43
1.0
 76
     1
 77
     6
 78
     2
 67
     7
 79
     5
170
     0
171
     0
290
     0
174
     0
 93
        1
 44
-50.0
173
     0
291
     1
 45
0.0
1001
ACAD
1000
AcDbSavedByObjectVersion
1070
     0
  0
VISUALSTYLE
  5
39
102
{ACAD_REACTORS
330
2A
102
}
102
{ACAD_XDICTIONARY
360
DE3
102
}
330
2A
100
AcDbVisualStyle
  2
Facepattern
 70
    15
 71
     2
 72
     2
 73
     0
 90
        0
 40
-0.6
 41
-30.0
 62
     5
 63
     7
 74
     1
 91
        4
 64
     7
 65
   257
 75
     1
175
     1
 42
1.0
 92
        8
 66
     7
 43
1.0
 76
     1
 77
     6
 78
     2
 67
     7
 79
     5
170
     0
171
     0
290
     0
174
     0
 93
        1
 44
0.0
173
     0
291
     1
 45
0.0
1001
ACAD
1000
AcDbSavedByObjectVersion
1070
     0
  0
VISUALSTYLE
  5
2B
102
{ACAD_REACTORS
330
2A
102
}
102
{ACAD_XDICTIONARY
360
DC7
102
}
330
2A
100
AcDbVisualStyle
  2
Flat
 70
     0
 71
     2
 72
     1
 73
     1
 90
        2
 40
-0.6
 41
30.0
 62
     5
 63
     7
 74
     0
 91
        4
 64
     7
 65
   257
 75
     1
175
     1
 42
1.0
 92
        8
 66
     7
 43
1.0
 76
     1
 77
     6
 78
     2
 67
     7
 79
     5
170
     0
171
     0
290
     0
174
     0
 93
       13
 44
0.0
173
     0
291
     1
 45
0.0
1001
ACAD
1000
AcDbSavedByObjectVersion
1070
     0
  0
VISUALSTYLE
  5
2C
102
{ACAD_REACTORS
330
2A
102
}
102
{ACAD_XDICTIONARY
360
DC9
102
}
330
2A
100
AcDbVisualStyle
  2
FlatWithEdges
 70
     1
 71
     2
 72
     1
 73
     1
 90
        2
 40
-0.6
 41
30.0
 62
     5
 63
     7
 74
     1
 91
        4
 64
     7
 65
   257
 75
     1
175
     1
 42
1.0
 92
        0
 66
   257
 43
1.0
 76
     1
 77
     6
 78
     2
 67
     7
 79
     5
170
     0
171
     0
290
     0
174
     0
 93
       13
 44
0.0
173
     0
291
     1
 45
0.0
1001
ACAD
1000
AcDbSavedByObjectVersion
1070
     0
  0
VISUALSTYLE
  5
2D
102
{ACAD_REACTORS
330
2A
102
}
102
{ACAD_XDICTIONARY
360
DCB
102
}
330
2A
100
AcDbVisualStyle
  2
Gouraud
 70
     2
 71
     2
 72
     2
 73
     1
 90
        2
 40
-0.6
 41
30.0
 62
     5
 63
     7
 74
     0
 91
        4
 64
     7
 65
   257
 75
     1
175
     1
 42
1.0
 92
        0
 66
     7
 43
1.0
 76
     1
 77
     6
 78
     2
 67
     7
 79
     5
170
     0
171
     0
290
     0
174
     0
 93
       13
 44
0.0
173
     0
291
     1
 45
0.0
1001
ACAD
1000
AcDbSavedByObjectVersion
1070
     0
  0
VISUALSTYLE
  5
2E
102
{ACAD_REACTORS
330
2A
102
}
102
{ACAD_XDICTIONARY
360
DCD
102
}
330
2A
100
AcDbVisualStyle
  2
GouraudWithEdges
 70
     3
 71
     2
 72
     2
 73
     1
 90
        2
 40
-0.6
 41
30.0
 62
     5
 63
     7
 74
     1
 91
        4
 64
     7
 65
   257
 75
     1
175
     1
 42
1.0
 92
        0
 66
   257
 43
1.0
 76
     1
 77
     6
 78
     2
 67
     7
 79
     5
170
     0
171
     0
290
     0
174
     0
 93
       13
 44
0.0
173
     0
291
     1
 45
0.0
1001
ACAD
1000
AcDbSavedByObjectVersion
1070
     0
  0
VISUALSTYLE
  5
38
102
{ACAD_REACTORS
330
2A
102
}
102
{ACAD_XDICTIONARY
360
DE1
102
}
330
2A
100
AcDbVisualStyle
  2
Linepattern
 70
    14
 71
     2
 72
     2
 73
     0
 90
        0
 40
-0.6
 41
-30.0
 62
     5
 63
     7
 74
     1
 91
        4
 64
     7
 65
   257
 75
     7
175
     7
 42
1.0
 92
        8
 66
     7
 43
1.0
 76
     1
 77
     6
 78
     2
 67
     7
 79
     5
170
     0
171
     0
290
     0
174
     0
 93
        1
 44
0.0
173
     0
291
     1
 45
0.0
1001
ACAD
1000
AcDbSavedByObjectVersion
1070
     0
  0
VISUALSTYLE
  5
33
102
{ACAD_REACTORS
330
2A
102
}
102
{ACAD_XDICTIONARY
360
DD7
102
}
330
2A
100
AcDbVisualStyle
  2
Realistic
 70
     8
 71
     2
 72
     2
 73
     0
 90
        0
 40
-0.6
 41
-30.0
 62
     5
 63
     7
 74
     1
 91
        0
 64
     7
 65
   257
 75
     1
175
     1
 42
1.0
 92
        8
 66
     8
 43
1.0
 76
     1
 77
     6
 78
     2
 67
     7
 79
     5
170
     0
171
     0
290
     0
174
     0
 93
       13
 44
0.0
173
     0
291
     0
 45
0.0
1001
ACAD
1000
AcDbSavedByObjectVersion
1070
     0
  0
VISUALSTYLE
  5
37
102
{ACAD_REACTORS
330
2A
102
}
102
{ACAD_XDICTIONARY
360
DDF
102
}
330
2A
100
AcDbVisualStyle
  2
Thicken
 70
    13
 71
     2
 72
     2
 73
     0
 90
        0
 40
-0.6
 41
-30.0
 62
     5
 63
     7
 74
     1
 91
        4
 64
     7
 65
   257
 75
     1
175
     1
 42
1.0
 92
       12
 66
     7
 43
1.0
 76
     1
 77
     6
 78
     2
 67
     7
 79
     5
170
     0
171
     0
290
     0
174
     0
 93
        1
 44
0.0
173
     0
291
     1
 45
0.0
1001
ACAD
1000
AcDbSavedByObjectVersion
1070
     0
  0
DICTIONARYVAR
  5
DC4
102
{ACAD_REACTORS
330
DBF
102
}
330
DBF
100
DictionaryVariables
280
     0
  1
1:1
  0
DICTIONARYVAR
  5
DC5
102
{ACAD_REACTORS
330
DBF
102
}
330
DBF
100
DictionaryVariables
280
     0
  1
2
  0
DICTIONARYVAR
  5
DC6
102
{ACAD_REACTORS
330
DBF
102
}
330
DBF
100
DictionaryVariables
280
     0
  1
1
  0
DICTIONARYVAR
  5
DC3
102
{ACAD_REACTORS
330
DBF
102
}
330
DBF
100
DictionaryVariables
280
     0
  1
80.000000
  0
DICTIONARYVAR
  5
DC2
102
{ACAD_REACTORS
330
DBF
102
}
330
DBF
100
DictionaryVariables
280
     0
  1
5.000000
  0
DICTIONARY
  5
DE9
330
3D
100
AcDbDictionary
280
     1
281
     1
  3
ACAD_XREC_ROUNDTRIP
360
DEA
  0
DICTIONARY
  5
DE7
330
3C
100
AcDbDictionary
280
     1
281
     1
  3
ACAD_XREC_ROUNDTRIP
360
DE8
  0
DICTIONARY
  5
DEB
330
3E
100
AcDbDictionary
280
     1
281
     1
  3
ACAD_XREC_ROUNDTRIP
360
DEC
  0
DICTIONARY
  5
DCF
330
2F
100
AcDbDictionary
280
     1
281
     1
  3
ACAD_XREC_ROUNDTRIP
360
DD0
  0
DICTIONARY
  5
DD3
330
31
100
AcDbDictionary
280
     1
281
     1
  3
ACAD_XREC_ROUNDTRIP
360
DD4
  0
DICTIONARY
  5
DD1
330
30
100
AcDbDictionary
280
     1
281
     1
  3
ACAD_XREC_ROUNDTRIP
360
DD2
  0
DICTIONARY
  5
DD5
330
32
100
AcDbDictionary
280
     1
281
     1
  3
ACAD_XREC_ROUNDTRIP
360
DD6
  0
DICTIONARY
  5
DDD
330
36
100
AcDbDictionary
280
     1
281
     1
  3
ACAD_XREC_ROUNDTRIP
360
DDE
  0
DICTIONARY
  5
DE5
330
3A
100
AcDbDictionary
280
     1
281
     1
  3
ACAD_XREC_ROUNDTRIP
360
DE6
  0
DICTIONARY
  5
DD9
330
34
100
AcDbDictionary
280
     1
281
     1
  3
ACAD_XREC_ROUNDTRIP
360
DDA
  0
DICTIONARY
  5
DDB
330
35
100
AcDbDictionary
280
     1
281
     1
  3
ACAD_XREC_ROUNDTRIP
360
DDC
  0
DICTIONARY
  5
DE3
330
39
100
AcDbDictionary
280
     1
281
     1
  3
ACAD_XREC_ROUNDTRIP
360
DE4
  0
DICTIONARY
  5
DC7
330
2B
100
AcDbDictionary
280
     1
281
     1
  3
ACAD_XREC_ROUNDTRIP
360
DC8
  0
DICTIONARY
  5
DC9
330
2C
100
AcDbDictionary
280
     1
281
     1
  3
ACAD_XREC_ROUNDTRIP
360
DCA
  0
DICTIONARY
  5
DCB
330
2D
100
AcDbDictionary
280
     1
281
     1
  3
ACAD_XREC_ROUNDTRIP
360
DCC
  0
DICTIONARY
  5
DCD
330
2E
100
AcDbDictionary
280
     1
281
     1
  3
ACAD_XREC_ROUNDTRIP
360
DCE
  0
DICTIONARY
  5
DE1
330
38
100
AcDbDictionary
280
     1
281
     1
  3
ACAD_XREC_ROUNDTRIP
360
DE2
  0
DICTIONARY
  5
DD7
330
33
100
AcDbDictionary
280
     1
281
     1
  3
ACAD_XREC_ROUNDTRIP
360
DD8
  0
DICTIONARY
  5
DDF
330
37
100
AcDbDictionary
280
     1
281
     1
  3
ACAD_XREC_ROUNDTRIP
360
DE0
  0
XRECORD
  5
DEA
102
{ACAD_REACTORS
330
DE9
102
}
330
DE9
100
AcDbXrecord
280
     1
102
MATERIAL
148
0.0
149
0.0
149
0.0
 93
        0
 94
      127
282
     0
 72
     1
 77
     1
171
     1
175
     1
179
     1
273
     0
  0
XRECORD
  5
DE8
102
{ACAD_REACTORS
330
DE7
102
}
330
DE7
100
AcDbXrecord
280
     1
102
MATERIAL
148
0.0
149
0.0
149
0.0
 93
        0
 94
      127
282
     0
 72
     1
 77
     1
171
     1
175
     1
179
     1
273
     0
  0
XRECORD
  5
DEC
102
{ACAD_REACTORS
330
DEB
102
}
330
DEB
100
AcDbXrecord
280
     1
102
MATERIAL
148
0.0
149
0.0
149
0.0
 93
        0
 94
      127
282
     0
 72
     1
 77
     1
171
     1
175
     1
179
     1
273
     0
  0
XRECORD
  5
DD0
102
{ACAD_REACTORS
330
DCF
102
}
330
DCF
100
AcDbXrecord
280
     1
102
RTVSPropertyOp0
 70
     1
102
RTVSPropertyOp1
 70
     1
102
RTVSPropertyOp2
 70
     1
102
RTVSPropertyOp3
 70
     1
102
RTVSPropertyOp4
 70
     1
102
RTVSPropertyOp5
 70
     1
102
RTVSPropertyOp6
 70
     1
102
RTVSPropertyOp7
 70
     1
102
RTVSPropertyOp8
 70
     1
102
RTVSPropertyOp9
 70
     1
102
RTVSPropertyOp10
 70
     1
102
RTVSPropertyOp11
 70
     1
102
RTVSPropertyOp12
 70
     1
102
RTVSPropertyOp13
 70
     1
102
RTVSPropertyOp14
 70
     1
102
RTVSPropertyOp15
 70
     1
102
RTVSPropertyOp16
 70
     1
102
RTVSPropertyOp17
 70
     1
102
RTVSPropertyOp18
 70
     1
102
RTVSPropertyOp19
 70
     1
102
RTVSPropertyOp20
 70
     1
102
RTVSPropertyOp21
 70
     1
102
RTVSPropertyOp22
 70
     1
102
RTVSPropertyOp23
 70
     1
102
RTVSPropertyOp24
 70
     1
102
RTVSPropertyOp25
 70
     1
102
RTVSPropertyOp26
 70
     1
102
RTVSPropertyOp27
 70
     1
  0
XRECORD
  5
DD4
102
{ACAD_REACTORS
330
DD3
102
}
330
DD3
100
AcDbXrecord
280
     1
102
RTVSPropertyOp0
 70
     1
102
RTVSPropertyOp1
 70
     1
102
RTVSPropertyOp2
 70
     1
102
RTVSPropertyOp3
 70
     1
102
RTVSPropertyOp4
 70
     1
102
RTVSPropertyOp5
 70
     1
102
RTVSPropertyOp6
 70
     1
102
RTVSPropertyOp7
 70
     1
102
RTVSPropertyOp8
 70
     1
102
RTVSPropertyOp9
 70
     1
102
RTVSPropertyOp10
 70
     1
102
RTVSPropertyOp11
 70
     1
102
RTVSPropertyOp12
 70
     1
102
RTVSPropertyOp13
 70
     1
102
RTVSPropertyOp14
 70
     1
102
RTVSPropertyOp15
 70
     1
102
RTVSPropertyOp16
 70
     1
102
RTVSPropertyOp17
 70
     1
102
RTVSPropertyOp18
 70
     1
102
RTVSPropertyOp19
 70
     1
102
RTVSPropertyOp20
 70
     1
102
RTVSPropertyOp21
 70
     1
102
RTVSPropertyOp22
 70
     1
102
RTVSPropertyOp23
 70
     1
102
RTVSPropertyOp24
 70
     1
102
RTVSPropertyOp25
 70
     1
102
RTVSPropertyOp26
 70
     1
102
RTVSPropertyOp27
 70
     1
  0
XRECORD
  5
DD2
102
{ACAD_REACTORS
330
DD1
102
}
330
DD1
100
AcDbXrecord
280
     1
102
RTVSPropertyOp0
 70
     1
102
RTVSPropertyOp1
 70
     1
102
RTVSPropertyOp2
 70
     1
102
RTVSPropertyOp3
 70
     1
102
RTVSPropertyOp4
 70
     1
102
RTVSPropertyOp5
 70
     1
102
RTVSPropertyOp6
 70
     1
102
RTVSPropertyOp7
 70
     1
102
RTVSPropertyOp8
 70
     1
102
RTVSPropertyOp9
 70
     1
102
RTVSPropertyOp10
 70
     1
102
RTVSPropertyOp11
 70
     1
102
RTVSPropertyOp12
 70
     1
102
RTVSPropertyOp13
 70
     1
102
RTVSPropertyOp14
 70
     1
102
RTVSPropertyOp15
 70
     1
102
RTVSPropertyOp16
 70
     1
102
RTVSPropertyOp17
 70
     1
102
RTVSPropertyOp18
 70
     1
102
RTVSPropertyOp19
 70
     1
102
RTVSPropertyOp20
 70
     1
102
RTVSPropertyOp21
 70
     1
102
RTVSPropertyOp22
 70
     1
102
RTVSPropertyOp23
 70
     1
102
RTVSPropertyOp24
 70
     1
102
RTVSPropertyOp25
 70
     1
102
RTVSPropertyOp26
 70
     1
102
RTVSPropertyOp27
 70
     1
  0
XRECORD
  5
DD6
102
{ACAD_REACTORS
330
DD5
102
}
330
DD5
100
AcDbXrecord
280
     1
102
RTVSPropertyOp0
 70
     1
102
RTVSPropertyOp1
 70
     1
102
RTVSPropertyOp2
 70
     1
102
RTVSPropertyOp3
 70
     1
102
RTVSPropertyOp4
 70
     1
102
RTVSPropertyOp5
 70
     1
102
RTVSPropertyOp6
 70
     1
102
RTVSPropertyOp7
 70
     1
102
RTVSPropertyOp8
 70
     1
102
RTVSPropertyOp9
 70
     1
102
RTVSPropertyOp10
 70
     1
102
RTVSPropertyOp11
 70
     1
102
RTVSPropertyOp12
 70
     1
102
RTVSPropertyOp13
 70
     1
102
RTVSPropertyOp14
 70
     1
102
RTVSPropertyOp15
 70
     1
102
RTVSPropertyOp16
 70
     1
102
RTVSPropertyOp17
 70
     1
102
RTVSPropertyOp18
 70
     1
102
RTVSPropertyOp19
 70
     1
102
RTVSPropertyOp20
 70
     1
102
RTVSPropertyOp21
 70
     1
102
RTVSPropertyOp22
 70
     1
102
RTVSPropertyOp23
 70
     1
102
RTVSPropertyOp24
 70
     1
102
RTVSPropertyOp25
 70
     1
102
RTVSPropertyOp26
 70
     1
102
RTVSPropertyOp27
 70
     1
  0
XRECORD
  5
DDE
102
{ACAD_REACTORS
330
DDD
102
}
330
DDD
100
AcDbXrecord
280
     1
102
RTVSPropertyOp0
 70
     1
102
RTVSPropertyOp1
 70
     1
102
RTVSPropertyOp2
 70
     1
102
RTVSPropertyOp3
 70
     1
102
RTVSPropertyOp4
 70
     1
102
RTVSPropertyOp5
 70
     1
102
RTVSPropertyOp6
 70
     1
102
RTVSPropertyOp7
 70
     1
102
RTVSPropertyOp8
 70
     1
102
RTVSPropertyOp9
 70
     1
102
RTVSPropertyOp10
 70
     1
102
RTVSPropertyOp11
 70
     1
102
RTVSPropertyOp12
 70
     1
102
RTVSPropertyOp13
 70
     1
102
RTVSPropertyOp14
 70
     1
102
RTVSPropertyOp15
 70
     1
102
RTVSPropertyOp16
 70
     1
102
RTVSPropertyOp17
 70
     1
102
RTVSPropertyOp18
 70
     1
102
RTVSPropertyOp19
 70
     1
102
RTVSPropertyOp20
 70
     1
102
RTVSPropertyOp21
 70
     1
102
RTVSPropertyOp22
 70
     1
102
RTVSPropertyOp23
 70
     1
102
RTVSPropertyOp24
 70
     1
102
RTVSPropertyOp25
 70
     1
102
RTVSPropertyOp26
 70
     1
102
RTVSPropertyOp27
 70
     1
  0
XRECORD
  5
DE6
102
{ACAD_REACTORS
330
DE5
102
}
330
DE5
100
AcDbXrecord
280
     1
102
RTVSPropertyOp0
 70
     1
102
RTVSPropertyOp1
 70
     1
102
RTVSPropertyOp2
 70
     1
102
RTVSPropertyOp3
 70
     1
102
RTVSPropertyOp4
 70
     1
102
RTVSPropertyOp5
 70
     1
102
RTVSPropertyOp6
 70
     1
102
RTVSPropertyOp7
 70
     1
102
RTVSPropertyOp8
 70
     1
102
RTVSPropertyOp9
 70
     1
102
RTVSPropertyOp10
 70
     1
102
RTVSPropertyOp11
 70
     1
102
RTVSPropertyOp12
 70
     1
102
RTVSPropertyOp13
 70
     1
102
RTVSPropertyOp14
 70
     1
102
RTVSPropertyOp15
 70
     1
102
RTVSPropertyOp16
 70
     1
102
RTVSPropertyOp17
 70
     1
102
RTVSPropertyOp18
 70
     1
102
RTVSPropertyOp19
 70
     1
102
RTVSPropertyOp20
 70
     1
102
RTVSPropertyOp21
 70
     1
102
RTVSPropertyOp22
 70
     1
102
RTVSPropertyOp23
 70
     1
102
RTVSPropertyOp24
 70
     1
102
RTVSPropertyOp25
 70
     1
102
RTVSPropertyOp26
 70
     1
102
RTVSPropertyOp27
 70
     1
  0
XRECORD
  5
DDA
102
{ACAD_REACTORS
330
DD9
102
}
330
DD9
100
AcDbXrecord
280
     1
102
RTVSPropertyOp0
 70
     1
102
RTVSPropertyOp1
 70
     1
102
RTVSPropertyOp2
 70
     1
102
RTVSPropertyOp3
 70
     1
102
RTVSPropertyOp4
 70
     1
102
RTVSPropertyOp5
 70
     1
102
RTVSPropertyOp6
 70
     1
102
RTVSPropertyOp7
 70
     1
102
RTVSPropertyOp8
 70
     1
102
RTVSPropertyOp9
 70
     1
102
RTVSPropertyOp10
 70
     1
102
RTVSPropertyOp11
 70
     1
102
RTVSPropertyOp12
 70
     1
102
RTVSPropertyOp13
 70
     1
102
RTVSPropertyOp14
 70
     1
102
RTVSPropertyOp15
 70
     1
102
RTVSPropertyOp16
 70
     1
102
RTVSPropertyOp17
 70
     1
102
RTVSPropertyOp18
 70
     1
102
RTVSPropertyOp19
 70
     1
102
RTVSPropertyOp20
 70
     1
102
RTVSPropertyOp21
 70
     1
102
RTVSPropertyOp22
 70
     1
102
RTVSPropertyOp23
 70
     1
102
RTVSPropertyOp24
 70
     1
102
RTVSPropertyOp25
 70
     1
102
RTVSPropertyOp26
 70
     1
102
RTVSPropertyOp27
 70
     1
  0
XRECORD
  5
DDC
102
{ACAD_REACTORS
330
DDB
102
}
330
DDB
100
AcDbXrecord
280
     1
102
RTVSPropertyOp0
 70
     1
102
RTVSPropertyOp1
 70
     1
102
RTVSPropertyOp2
 70
     1
102
RTVSPropertyOp3
 70
     1
102
RTVSPropertyOp4
 70
     1
102
RTVSPropertyOp5
 70
     1
102
RTVSPropertyOp6
 70
     1
102
RTVSPropertyOp7
 70
     1
102
RTVSPropertyOp8
 70
     1
102
RTVSPropertyOp9
 70
     1
102
RTVSPropertyOp10
 70
     1
102
RTVSPropertyOp11
 70
     1
102
RTVSPropertyOp12
 70
     1
102
RTVSPropertyOp13
 70
     1
102
RTVSPropertyOp14
 70
     1
102
RTVSPropertyOp15
 70
     1
102
RTVSPropertyOp16
 70
     1
102
RTVSPropertyOp17
 70
     1
102
RTVSPropertyOp18
 70
     1
102
RTVSPropertyOp19
 70
     1
102
RTVSPropertyOp20
 70
     1
102
RTVSPropertyOp21
 70
     1
102
RTVSPropertyOp22
 70
     1
102
RTVSPropertyOp23
 70
     1
102
RTVSPropertyOp24
 70
     1
102
RTVSPropertyOp25
 70
     1
102
RTVSPropertyOp26
 70
     1
102
RTVSPropertyOp27
 70
     1
  0
XRECORD
  5
DE4
102
{ACAD_REACTORS
330
DE3
102
}
330
DE3
100
AcDbXrecord
280
     1
102
RTVSPropertyOp0
 70
     1
102
RTVSPropertyOp1
 70
     1
102
RTVSPropertyOp2
 70
     1
102
RTVSPropertyOp3
 70
     1
102
RTVSPropertyOp4
 70
     1
102
RTVSPropertyOp5
 70
     1
102
RTVSPropertyOp6
 70
     1
102
RTVSPropertyOp7
 70
     1
102
RTVSPropertyOp8
 70
     1
102
RTVSPropertyOp9
 70
     1
102
RTVSPropertyOp10
 70
     1
102
RTVSPropertyOp11
 70
     1
102
RTVSPropertyOp12
 70
     1
102
RTVSPropertyOp13
 70
     1
102
RTVSPropertyOp14
 70
     1
102
RTVSPropertyOp15
 70
     1
102
RTVSPropertyOp16
 70
     1
102
RTVSPropertyOp17
 70
     1
102
RTVSPropertyOp18
 70
     1
102
RTVSPropertyOp19
 70
     1
102
RTVSPropertyOp20
 70
     1
102
RTVSPropertyOp21
 70
     1
102
RTVSPropertyOp22
 70
     1
102
RTVSPropertyOp23
 70
     1
102
RTVSPropertyOp24
 70
     1
102
RTVSPropertyOp25
 70
     1
102
RTVSPropertyOp26
 70
     1
102
RTVSPropertyOp27
 70
     1
  0
XRECORD
  5
DC8
102
{ACAD_REACTORS
330
DC7
102
}
330
DC7
100
AcDbXrecord
280
     1
102
RTVSPropertyOp0
 70
     1
102
RTVSPropertyOp1
 70
     1
102
RTVSPropertyOp2
 70
     1
102
RTVSPropertyOp3
 70
     1
102
RTVSPropertyOp4
 70
     1
102
RTVSPropertyOp5
 70
     1
102
RTVSPropertyOp6
 70
     1
102
RTVSPropertyOp7
 70
     1
102
RTVSPropertyOp8
 70
     1
102
RTVSPropertyOp9
 70
     1
102
RTVSPropertyOp10
 70
     1
102
RTVSPropertyOp11
 70
     1
102
RTVSPropertyOp12
 70
     1
102
RTVSPropertyOp13
 70
     1
102
RTVSPropertyOp14
 70
     1
102
RTVSPropertyOp15
 70
     1
102
RTVSPropertyOp16
 70
     1
102
RTVSPropertyOp17
 70
     1
102
RTVSPropertyOp18
 70
     1
102
RTVSPropertyOp19
 70
     1
102
RTVSPropertyOp20
 70
     1
102
RTVSPropertyOp21
 70
     1
102
RTVSPropertyOp22
 70
     1
102
RTVSPropertyOp23
 70
     1
102
RTVSPropertyOp24
 70
     1
102
RTVSPropertyOp25
 70
     1
102
RTVSPropertyOp26
 70
     1
102
RTVSPropertyOp27
 70
     1
  0
XRECORD
  5
DCA
102
{ACAD_REACTORS
330
DC9
102
}
330
DC9
100
AcDbXrecord
280
     1
102
RTVSPropertyOp0
 70
     1
102
RTVSPropertyOp1
 70
     1
102
RTVSPropertyOp2
 70
     1
102
RTVSPropertyOp3
 70
     1
102
RTVSPropertyOp4
 70
     1
102
RTVSPropertyOp5
 70
     1
102
RTVSPropertyOp6
 70
     1
102
RTVSPropertyOp7
 70
     1
102
RTVSPropertyOp8
 70
     1
102
RTVSPropertyOp9
 70
     1
102
RTVSPropertyOp10
 70
     1
102
RTVSPropertyOp11
 70
     1
102
RTVSPropertyOp12
 70
     1
102
RTVSPropertyOp13
 70
     1
102
RTVSPropertyOp14
 70
     1
102
RTVSPropertyOp15
 70
     1
102
RTVSPropertyOp16
 70
     1
102
RTVSPropertyOp17
 70
     1
102
RTVSPropertyOp18
 70
     1
102
RTVSPropertyOp19
 70
     1
102
RTVSPropertyOp20
 70
     1
102
RTVSPropertyOp21
 70
     1
102
RTVSPropertyOp22
 70
     1
102
RTVSPropertyOp23
 70
     1
102
RTVSPropertyOp24
 70
     1
102
RTVSPropertyOp25
 70
     1
102
RTVSPropertyOp26
 70
     1
102
RTVSPropertyOp27
 70
     1
  0
XRECORD
  5
DCC
102
{ACAD_REACTORS
330
DCB
102
}
330
DCB
100
AcDbXrecord
280
     1
102
RTVSPropertyOp0
 70
     1
102
RTVSPropertyOp1
 70
     1
102
RTVSPropertyOp2
 70
     1
102
RTVSPropertyOp3
 70
     1
102
RTVSPropertyOp4
 70
     1
102
RTVSPropertyOp5
 70
     1
102
RTVSPropertyOp6
 70
     1
102
RTVSPropertyOp7
 70
     1
102
RTVSPropertyOp8
 70
     1
102
RTVSPropertyOp9
 70
     1
102
RTVSPropertyOp10
 70
     1
102
RTVSPropertyOp11
 70
     1
102
RTVSPropertyOp12
 70
     1
102
RTVSPropertyOp13
 70
     1
102
RTVSPropertyOp14
 70
     1
102
RTVSPropertyOp15
 70
     1
102
RTVSPropertyOp16
 70
     1
102
RTVSPropertyOp17
 70
     1
102
RTVSPropertyOp18
 70
     1
102
RTVSPropertyOp19
 70
     1
102
RTVSPropertyOp20
 70
     1
102
RTVSPropertyOp21
 70
     1
102
RTVSPropertyOp22
 70
     1
102
RTVSPropertyOp23
 70
     1
102
RTVSPropertyOp24
 70
     1
102
RTVSPropertyOp25
 70
     1
102
RTVSPropertyOp26
 70
     1
102
RTVSPropertyOp27
 70
     1
  0
XRECORD
  5
DCE
102
{ACAD_REACTORS
330
DCD
102
}
330
DCD
100
AcDbXrecord
280
     1
102
RTVSPropertyOp0
 70
     1
102
RTVSPropertyOp1
 70
     1
102
RTVSPropertyOp2
 70
     1
102
RTVSPropertyOp3
 70
     1
102
RTVSPropertyOp4
 70
     1
102
RTVSPropertyOp5
 70
     1
102
RTVSPropertyOp6
 70
     1
102
RTVSPropertyOp7
 70
     1
102
RTVSPropertyOp8
 70
     1
102
RTVSPropertyOp9
 70
     1
102
RTVSPropertyOp10
 70
     1
102
RTVSPropertyOp11
 70
     1
102
RTVSPropertyOp12
 70
     1
102
RTVSPropertyOp13
 70
     1
102
RTVSPropertyOp14
 70
     1
102
RTVSPropertyOp15
 70
     1
102
RTVSPropertyOp16
 70
     1
102
RTVSPropertyOp17
 70
     1
102
RTVSPropertyOp18
 70
     1
102
RTVSPropertyOp19
 70
     1
102
RTVSPropertyOp20
 70
     1
102
RTVSPropertyOp21
 70
     1
102
RTVSPropertyOp22
 70
     1
102
RTVSPropertyOp23
 70
     1
102
RTVSPropertyOp24
 70
     1
102
RTVSPropertyOp25
 70
     1
102
RTVSPropertyOp26
 70
     1
102
RTVSPropertyOp27
 70
     1
  0
XRECORD
  5
DE2
102
{ACAD_REACTORS
330
DE1
102
}
330
DE1
100
AcDbXrecord
280
     1
102
RTVSPropertyOp0
 70
     1
102
RTVSPropertyOp1
 70
     1
102
RTVSPropertyOp2
 70
     1
102
RTVSPropertyOp3
 70
     1
102
RTVSPropertyOp4
 70
     1
102
RTVSPropertyOp5
 70
     1
102
RTVSPropertyOp6
 70
     1
102
RTVSPropertyOp7
 70
     1
102
RTVSPropertyOp8
 70
     1
102
RTVSPropertyOp9
 70
     1
102
RTVSPropertyOp10
 70
     1
102
RTVSPropertyOp11
 70
     1
102
RTVSPropertyOp12
 70
     1
102
RTVSPropertyOp13
 70
     1
102
RTVSPropertyOp14
 70
     1
102
RTVSPropertyOp15
 70
     1
102
RTVSPropertyOp16
 70
     1
102
RTVSPropertyOp17
 70
     1
102
RTVSPropertyOp18
 70
     1
102
RTVSPropertyOp19
 70
     1
102
RTVSPropertyOp20
 70
     1
102
RTVSPropertyOp21
 70
     1
102
RTVSPropertyOp22
 70
     1
102
RTVSPropertyOp23
 70
     1
102
RTVSPropertyOp24
 70
     1
102
RTVSPropertyOp25
 70
     1
102
RTVSPropertyOp26
 70
     1
102
RTVSPropertyOp27
 70
     1
  0
XRECORD
  5
DD8
102
{ACAD_REACTORS
330
DD7
102
}
330
DD7
100
AcDbXrecord
280
     1
102
RTVSPropertyOp0
 70
     1
102
RTVSPropertyOp1
 70
     1
102
RTVSPropertyOp2
 70
     1
102
RTVSPropertyOp3
 70
     1
102
RTVSPropertyOp4
 70
     1
102
RTVSPropertyOp5
 70
     1
102
RTVSPropertyOp6
 70
     1
102
RTVSPropertyOp7
 70
     1
102
RTVSPropertyOp8
 70
     1
102
RTVSPropertyOp9
 70
     1
102
RTVSPropertyOp10
 70
     1
102
RTVSPropertyOp11
 70
     1
102
RTVSPropertyOp12
 70
     1
102
RTVSPropertyOp13
 70
     1
102
RTVSPropertyOp14
 70
     1
102
RTVSPropertyOp15
 70
     1
102
RTVSPropertyOp16
 70
     1
102
RTVSPropertyOp17
 70
     1
102
RTVSPropertyOp18
 70
     1
102
RTVSPropertyOp19
 70
     1
102
RTVSPropertyOp20
 70
     1
102
RTVSPropertyOp21
 70
     1
102
RTVSPropertyOp22
 70
     1
102
RTVSPropertyOp23
 70
     1
102
RTVSPropertyOp24
 70
     1
102
RTVSPropertyOp25
 70
     1
102
RTVSPropertyOp26
 70
     1
102
RTVSPropertyOp27
 70
     1
  0
XRECORD
  5
DE0
102
{ACAD_REACTORS
330
DDF
102
}
330
DDF
100
AcDbXrecord
280
     1
102
RTVSPropertyOp0
 70
     1
102
RTVSPropertyOp1
 70
     1
102
RTVSPropertyOp2
 70
     1
102
RTVSPropertyOp3
 70
     1
102
RTVSPropertyOp4
 70
     1
102
RTVSPropertyOp5
 70
     1
102
RTVSPropertyOp6
 70
     1
102
RTVSPropertyOp7
 70
     1
102
RTVSPropertyOp8
 70
     1
102
RTVSPropertyOp9
 70
     1
102
RTVSPropertyOp10
 70
     1
102
RTVSPropertyOp11
 70
     1
102
RTVSPropertyOp12
 70
     1
102
RTVSPropertyOp13
 70
     1
102
RTVSPropertyOp14
 70
     1
102
RTVSPropertyOp15
 70
     1
102
RTVSPropertyOp16
 70
     1
102
RTVSPropertyOp17
 70
     1
102
RTVSPropertyOp18
 70
     1
102
RTVSPropertyOp19
 70
     1
102
RTVSPropertyOp20
 70
     1
102
RTVSPropertyOp21
 70
     1
102
RTVSPropertyOp22
 70
     1
102
RTVSPropertyOp23
 70
     1
102
RTVSPropertyOp24
 70
     1
102
RTVSPropertyOp25
 70
     1
102
RTVSPropertyOp26
 70
     1
102
RTVSPropertyOp27
 70
     1
  0
ENDSEC
  0
EOF
